Oops, an error
Loading. Please wait.

Beautiful Acoustic Tab

32,645 views 27 this week
no commentswrite comment
1 2 3 4 5
excellent!
x 2
add to favorites launch autoscroll
font size
0
reset
Autoscroll
+/-
esc
set tempo
stop
Contributor
WARNING: You are trying to view
                                    content from Ultimate-Guitar.com
                                    in an unauthorized application,
                                    which is prohibited.

                                    Please use an official Ultimate
                                    Guitar Tabs application for iPhone,
                                    iPad or Android to access legitimate
                                    chords, guitar, bass, and drum tabs
                                    from Ultimate-Guitar.com database.

                                    Type "ultimate guitar tabs" in Apple
                                    App Store's or Android Market's
                                    search to find the application.
10 Years
Beautiful (Acoustic)
Tabbed by U B the band
Tuning Db Ab Db Gb Bb Eb

Legend
p-pull off                b-bend                       /-slide up
()-bend to                r-return bend                \-slide down

This tab actually took me awhile, I hope it proves helpful. This song
is available for download with purchases through retailer FYE. I'll
add some time stamps after this tab is up on ultimate-guitar.com

Intro Guitar 1 (Acoustic):
Eb|-----------------------------------------------------------------|
Bb|-----------------------------------------------------------------|
Gb|-----------------------------------------------------------------|
Db|-----------------------------------------------------------------|
Ab|-----------------------------------------------------------------|
Db|-----------------------------------------------------------------|
                                                                    |
Intro Guitar 2 (Acoustic):                                          |
Eb|--0--------------------------------------------------------------|
Bb|--6-----------------------------------------10--------8----------|
Gb|--7-----------------------------------------10--------7----------|
Db|--7-----------------------------------------7---------7----------|
Ab|-----------------------------------------------------------------|
Db|-----------------------------------------------------------------|

Intro Guitar 1 (Acoustic):
Eb|-----------------------------------------------------------------|
Bb|--------------3------------------------------8-------------------|
Gb|--------------2------------------------------7-------------------|
Db|--------------0------------------------------5-------------------|
Ab|--------------0--------------------------------------------------|
Db|--------------0--------------------------------------------------|
                                                                    |
Intro Guitar 2 (Acoustic):                                          |
Eb|-----------------------------------------------------------------|
Bb|-----------------------------------------------------------------|
Gb|---7-----5/7------------------------7--7--------------------5-2--|
Db|------7-----------------------------------7--5----------5p3------|
Ab|-----------------------------------------------------------------|
Db|-----------------------------------------------------------------|

Verse 1 Guitar 1 (Acoustic):
Eb|-----------------------------------------------------------------|
Bb|------------------------------------------------------3----------|
Gb|---------------5----5p0----2-------5------7-----------2-------2--|
Db|--0------------3----3p0----0-------3------5-----------0-------0--|
Ab|--0------------------------0-------3------5-----------0-------0--|
Db|--0--------------------------------3------5-----------0----------|
                                                                    |
Verse 1 Guitar 2 (Acoustic):                                        |
Eb|-----------------------------------------------------------------|
Bb|-----------------------------------------------------6-----------|
Gb|--------------------------------------------------7--------------|
Db|-----------------------------------------------7-----------------|
Ab|--------------------------------------------5--------------------|
Db|-----------------------------------------------------------------|

Verse 1 Guitar 1: (Acoustic):
Eb|-----------------------------------------------------------------|
Bb|---------------5-------------------------------------------------|
Gb|--5------------7-------------------------------------------------|
Db|--3------------5-------------------------------------------------|
Ab|--3------------5-------------------------------------------------|
Db|--3------------5-------------------------------------------------|
                                                                    |
Verse 1 Guitar 1: (Acoustic):                                       |
Eb|-----------------------------------------------------------------|
Bb|---------------5--b(6)--r5---------------------------------------|
Gb|---------------7-------------------------------------------------|
Db|---------------7-------------------------------------------------|
Ab|-----------------------------------------------------------------|
Db|-----------------------------------------------------------------|

Verse 1 Guitar 1 (Acoustic):
Eb|-----------------------------------------------------------------|
Bb|-----------------------------------------------------------------|
Gb|--5----5p0----2----5----5p0----2----------5------7---------------|
Db|--3----3p0----0----3----3p0----0----------3------5---------------|
Ab|--------------0----------------0----------3------5---------------|
Db|------------------------------------------3------5---------------|
                                                                    |
Verse 1 Guitar 2 (Acoustic):                                        |
Eb|-----------------------------------------------------------------|
Bb|-------------------------------------------------------------5---|
Gb|----------------------------------------------------7-----7------|
Db|-------------------------------------------------------7---------|
Ab|-----------------------------------------------------------------|
Db|-----------------------------------------------------------------|

Verse 1 Guitar 1 (Acoustic):
Eb|------------------------------------------0------------3---------|
Bb|------------------------------------------3------------3---------|
Gb|--5----5p0----2----5----5p0----2----------2------------0---------|
Db|--3----3p0----0----3----3p0----0--0-0-0---0------------0---------|
Ab|--------------0----------------0---------------------------------|
Db|-----------------------------------------------------------------|
                                                                    |
Verse 1 Guitar 2 (Acoustic):                                        |
Eb|-----------------------------------------------------------------|
Bb|------------------------------------------5------------8---------|
Gb|------------------------------------------7------------7---------|
Db|------------------------------------------7------------5---------|
Ab|------------------------------------------5------------5---------|
Db|-----------------------------------------------------------------|

Chorus Guitar 1 (Acoustic):
Eb|-----------------------------------------------------------------|
Bb|--3----3----3--3---3----------------10---------------------------|
Gb|--2----2----2--2---2----------------10---------------------------|
Db|--0----0----0--0---0--0---10-10--0--8----8----8-8--8-8---0--3--3-|
Ab|--0----0----0--0---0--0---10-10--0--8----8----8-8--8-8---0--3--3-|
Db|--0----0----0--0---0--0---10-10--0--8----8----8-8--8-8---0--3--3-|
                                                                    |
Chorus Guitar 2 (Acoustic):                                         |
Eb|-----------------------------------------------------------------|
Bb|-----------------------------------------------10----10----------|
Gb|-11--11--11-/12-12/14-14--------------------10----12-------------|
Db|--x---x---x---x--x-x---x--10-10----------12----------------------|
Ab|--9---9---9-/10-10/12-12--10-10----------------------------------|
Db|--0---0---0---------------10-10----------------------------------|

Chorus Guitar 1 (Acoustic):
Eb|-----------------------------------------------------------------|
Bb|--3----3----3--3---3---------------10----------------------------|
Gb|--2----2----2--2---2---------------10----------------------------|
Db|--0----0----0--0---0--0---10-10-0--8----8----8-8--8-8---0--3--3--|
Ab|--0----0----0--0---0--0---10-10-0--8----8----8-8--8-8---0--3--3--|
Db|--0----0----0--0---0--0---10-10-0--8----8----8-8--8-8---0--3--3--|
                                                                    |
Chorus Guitar 2 (Acoustic):                                         |
Eb|-----------------------------------------------------------------|
Bb|----------------------------------------------10----10-----------|
Gb|-11--11--11--------7-----------------------10----12--------------|
Db|--x---x---x--------7------10-10---------12-----------------------|
Ab|--9---9---9--------5------10-10----------------------------------|
Db|--0---0---0---------------10-10----------------------------------|

After Chorus Guitar 1 (Acoustic):
Eb|-----------------------------------------------------------------|
Bb|--3----3---3-----3----3---3-----6--------------------------------|
Gb|--2----2---2-----2----2---2-----5--------------------------------|
Db|--0----0---0-----3----3---3-----3--------------------------------|
Ab|--0----0---0-----0----0---0-----3--------------------------------|
Db|--0----0---0-----0----0---0-----3--------------------------------|
                                                                    |
After Chorus Guitar 2 (Acoustic):                                   |
Eb|-----------------------------------------------------------------|
Bb|-------10--------8-/10----10-------6---6-------------------------|
Gb|-------------------------------------------7------------5-2------|
Db|----------------------------------------------------5p3----------|
Ab|-----------------------------------------------------------------|
Db|-----------------------------------------------------------------|

Verse 2 Guitar 1 (Acoustic):
Eb|-----------------------------------------------------------------|
Bb|-----------------------------------------------------------------|
Gb|--5----5p0----2----5----5p0----2-------5------7------------------|
Db|--3----3p0----0----3----3p0----0-------3------5------------------|
Ab|--------------0----------------0-------3------5------------------|
Db|---------------------------------------3------5------------------|
                                                                    |
Verse 2 Guitar 2 (Acoustic):                                        |
Eb|-----------------------------------------------------------------|
Bb|---------------------------------------------------------6-------|
Gb|------------------------------------------------------7----------|
Db|---------------------------------------------------7-------------|
Ab|------------------------------------------------5----------------|
Db|-----------------------------------------------------------------|

Verse 2 Guitar 1: (Acoustic):
Eb|-----------------------------------------------------------------|
Bb|-----------------------------------------------------5-----------|
Gb|--5----5p0----2----5----5p0----2----------5----------7-----------|
Db|--3----3p0----0----3----3p0----0--0-0-0---3----------5-----------|
Ab|--------------0----------------0----------3----------5-----------|
Db|------------------------------------------3----------5-----------|
                                                                    |
Verse 2 Guitar 1: (Acoustic):                                       |
Eb|-----------------------------------------------------------------|
Bb|-----------------------------------------------------5--b(6)--r5-|
Gb|-----------------------------------------------------7-----------|
Db|-----------------------------------------------------7-----------|
Ab|-----------------------------------------------------------------|
Db|-----------------------------------------------------------------|

Verse 2 Guitar 1 (Acoustic):
Eb|-----------------------------------------------------------------|
Bb|-----------------------------------------------------------------|
Gb|--5----5p0----2----5----5p0----2----------5------7---------------|
Db|--3----3p0----0----3----3p0----0--0-0-0---3------5---------------|
Ab|--------------0----------------0----------3------5---------------|
Db|------------------------------------------3------5---------------|
                                                                    |
Verse 2 Guitar 2 (Acoustic):                                        |
Eb|-----------------------------------------------------------------|
Bb|-------------------------------------------------------------5---|
Gb|----------------------------------------------------7-----7------|
Db|-------------------------------------------------------7---------|
Ab|-----------------------------------------------------------------|
Db|-----------------------------------------------------------------|

Verse 2 Guitar 1 (Acoustic):
Eb|------------------------------------------0------------3---------|
Bb|------------------------------------------3------------3---------|
Gb|--5----5p0----2----5----5p0----2----------2------------0---------|
Db|--3----3p0----0----3----3p0----0--0-0-0---0------------0---------|
Ab|--------------0----------------0---------------------------------|
Db|-----------------------------------------------------------------|
                                                                    |
Verse 2 Guitar 2 (Acoustic):                                        |
Eb|-----------------------------------------------------------------|
Bb|------------------------------------------5------------8---------|
Gb|------------------------------------------7------------7---------|
Db|------------------------------------------7------------5---------|
Ab|------------------------------------------5------------5---------|
Db|-----------------------------------------------------------------|

Chorus Guitar 1 (Acoustic):
Eb|-----------------------------------------------------------------|
Bb|--3----3----3--3---3----------------10---------------------------|
Gb|--2----2----2--2---2----------------10---------------------------|
Db|--0----0----0--0---0--0---10-10--0--8----8----8-8--8-8---0--3--3-|
Ab|--0----0----0--0---0--0---10-10--0--8----8----8-8--8-8---0--3--3-|
Db|--0----0----0--0---0--0---10-10--0--8----8----8-8--8-8---0--3--3-|
                                                                    |
Chorus Guitar 2 (Acoustic):                                         |
Eb|-----------------------------------------------------------------|
Bb|-----------------------------------------------10----10----------|
Gb|-11--11--11-/12-12/14-14--------------------10----12-------------|
Db|--x---x---x---x--x-x---x--10-10----------12----------------------|
Ab|--9---9---9-/10-10/12-12--10-10----------------------------------|
Db|--0---0---0---------------10-10----------------------------------|

Chorus Guitar 1 (Acoustic):
Eb|-----------------------------------------------------------------|
Bb|--3----3----3--3---3---------------10----------------------------|
Gb|--2----2----2--2---2---------------10----------------------------|
Db|--0----0----0--0---0--0---10-10-0--8----8----8-8--8-8---0--3--3--|
Ab|--0----0----0--0---0--0---10-10-0--8----8----8-8--8-8---0--3--3--|
Db|--0----0----0--0---0--0---10-10-0--8----8----8-8--8-8---0--3--3--|
                                                                    |
Chorus Guitar 2 (Acoustic):                                         |
Eb|-----------------------------------------------------------------|
Bb|----------------------------------------------10----10-----------|
Gb|-11--11--11--------7-----------------------10----12--------------|
Db|--x---x---x--------7------10-10---------12-----------------------|
Ab|--9---9---9--------5------10-10----------------------------------|
Db|--0---0---0---------------10-10----------------------------------|

Chorus Guitar 1 (Acoustic):
Eb|-----------------------------------------------------------------|
Bb|--3----3----3--3---3----------------10---------------------------|
Gb|--2----2----2--2---2----------------10---------------------------|
Db|--0----0----0--0---0--0---10-10--0--8----8----8-8--8-8---0--3--3-|
Ab|--0----0----0--0---0--0---10-10--0--8----8----8-8--8-8---0--3--3-|
Db|--0----0----0--0---0--0---10-10--0--8----8----8-8--8-8---0--3--3-|
                                                                    |
Chorus Guitar 2 (Acoustic):                                         |
Eb|-----------------------------------------------------------------|
Bb|-----------------------------------------------10----10----------|
Gb|-11--11--11-/12-12/14-14--------------------10----12-------------|
Db|--x---x---x---x--x-x---x--10-10----------12----------------------|
Ab|--9---9---9-/10-10/12-12--10-10----------------------------------|
Db|--0---0---0---------------10-10----------------------------------|

Chorus Guitar 1 (Acoustic):
Eb|-----------------------------------------------------------------|
Bb|--3----3----3--3---3---------------10----------------------------|
Gb|--2----2----2--2---2---------------10----------------------------|
Db|--0----0----0--0---0--0---10-10-0--8----8----8-8--8-8---0--3--3--|
Ab|--0----0----0--0---0--0---10-10-0--8----8----8-8--8-8---0--3--3--|
Db|--0----0----0--0---0--0---10-10-0--8----8----8-8--8-8---0--3--3--|
                                                                    |
Chorus Guitar 2 (Acoustic):                                         |
Eb|-----------------------------------------------------------------|
Bb|----------------------------------------------10----10-----------|
Gb|-11--11--11--------7-----------------------10----12--------------|
Db|--x---x---x--------7------10-10---------12-----------------------|
Ab|--9---9---9--------5------10-10----------------------------------|
Db|--0---0---0---------------10-10----------------------------------|

Bridge Guitar 1 (Acoustic):
Eb|-----------------------------------------------------------------|
Bb|-----------------------------------------------------------------|
Gb|-----------------------------------------------------------12----|
Db|---------------------------------10-----10--12--12-12---12-12----|
Ab|--------5-7-5-----5-7-5--5/7-8---8------8---10--10-10---10-10----|
Db|--0--0---------0------------------------8---10--10-10---10-10----|

Bridge Guitar 1 (Acoustic):
Eb|-----------------------------------------------------------------|
Bb|-----------------------------------------------------------------|
Gb|-----------------------------------------------------------11----|
Db|---------------------------------10-----10--12--12-12---12-12----|
Ab|--------5-7-5-----5-7-5--5/7-8---8------8---10--10-10---10-10----|
Db|--0--0---------0------------------------8---10--10-10---10-10----|

Bridge Guitar 1 (Acoustic):
Eb|-----------------------------------------------------------------|
Bb|-----------------------------------------------------------------|
Gb|-----------------------------------------------------------12----|
Db|---------------------------------10-----10--12--12-12---12-12----|
Ab|--------5-7-5-----5-7-5--5/7-8---8------8---10--10-10---10-10----|
Db|--0--0---------0------------------------8---10--10-10---10-10----|

Bridge Guitar 1 (Acoustic):
Eb|-----------------------------------------------------------------|
Bb|-----------------------------------------------------------------|
Gb|-----------------------------------------------------------------|
Db|---------------------------------10--10----12----10----12------0-|
Ab|--------5-7-5-----5-7-5--5/7-8---8---8-----10----8-----10------0-|
Db|--0--0---------0---------------------8-----10----8-----10------0-|

After Bridge Chorus Guitar 1 (Acoustic):
Eb|-----------------------------------------------------------------|
Bb|--3----3----3--3---3----------------10---------------------------|
Gb|--2----2----2--2---2----------------10---------------------------|
Db|--0----0----0--0---0--0---10-10--0--8----8----8-8--8-8---0--3--3-|
Ab|--0----0----0--0---0--0---10-10--0--8----8----8-8--8-8---0--3--3-|
Db|--0----0----0--0---0--0---10-10--0--8----8----8-8--8-8---0--3--3-|
                                                                    |
After Bridge Chorus Guitar 2 (Acoustic):                            |
Eb|-----------------------------------------------------------------|
Bb|-----------------------------------------------10----------------|
Gb|-11--11--11-/12-12/14-14--------------------10-------12----------|
Db|--x---x---x---x--x-x---x--10-10----------12----------------------|
Ab|--9---9---9-/10-10/12-12--10-10----------------------------------|
Db|--0---0---0---------------10-10----------------------------------|

After Bridge Chorus Guitar 1 (Acoustic):
Eb|-----------------------------------------------------------------|
Bb|--3----3----3--3---3---------------10----------------------------|
Gb|--2----2----2--2---2---------------10----------------------------|
Db|--0----0----0--0---0--0---10-10-0--8-----------------------------|
Ab|--0----0----0--0---0--0---10-10-0--8-----------------------------|
Db|--0----0----0--0---0--0---10-10-0--8-----------------------------|
                                                                    |
After Bridge Chorus Guitar 2 (Acoustic):                            |
Eb|-----------------------------------------------------------------|
Bb|-----------------------------------10----------------------------|
Gb|-11--11--11--------7---------------10----------------------------|
Db|--x---x---x--------7------10-10-0--8-----------------------------|
Ab|--9---9---9--------5------10-10-0--8-----------------------------|
Db|--0---0---0---------------10-10-0--8-----------------------------|

Chorus Guitar 1 (Acoustic):   
Eb|-----------------------------------------------------------------|
Bb|--3----3----3--3---3----------------10---------------------------|
Gb|--2----2----2--2---2----------------10---------------------------|
Db|--0----0----0--0---0--0---10-10--0--8----8----8-8--8-8---0--3--3-|
Ab|--0----0----0--0---0--0---10-10--0--8----8----8-8--8-8---0--3--3-|
Db|--0----0----0--0---0--0---10-10--0--8----8----8-8--8-8---0--3--3-|
                                                                    |
Chorus Guitar 2 (Acoustic):                                         |
Eb|-----------------------------------------------------------------|
Bb|-----------------------------------------------10----10----------|
Gb|-11--11--11-/12-12/14-14--------------------10----12-------------|
Db|--x---x---x---x--x-x---x--10-10----------12----------------------|
Ab|--9---9---9-/10-10/12-12--10-10----------------------------------|
Db|--0---0---0---------------10-10----------------------------------|

Chorus Guitar 1 (Acoustic):
Eb|-----------------------------------------------------------------|
Bb|--3----3----3--3---3---------------10----------------------------|
Gb|--2----2----2--2---2---------------10----------------------------|
Db|--0----0----0--0---0--0---10-10-0--8----8----8-8--8-8---0--3--3--|
Ab|--0----0----0--0---0--0---10-10-0--8----8----8-8--8-8---0--3--3--|
Db|--0----0----0--0---0--0---10-10-0--8----8----8-8--8-8---0--3--3--|
                                                                    |
Chorus Guitar 2 (Acoustic):                                         |
Eb|-----------------------------------------------------------------|
Bb|----------------------------------------------10----10-----------|
Gb|-11--11--11--------7-----------------------10----12--------------|
Db|--x---x---x--------7------10-10---------12-----------------------|
Ab|--9---9---9--------5------10-10----------------------------------|
Db|--0---0---0---------------10-10----------------------------------|

Chorus Guitar 1 (Acoustic):
Eb|-----------------------------------------------------------------|
Bb|--3----3----3--3---3----------------10---------------------------|
Gb|--2----2----2--2---2----------------10---------------------------|
Db|--0----0----0--0---0--0---10-10--0--8----8----8-8--8-8---0--3--3-|
Ab|--0----0----0--0---0--0---10-10--0--8----8----8-8--8-8---0--3--3-|
Db|--0----0----0--0---0--0---10-10--0--8----8----8-8--8-8---0--3--3-|
                                                                    |
Chorus Guitar 2 (Acoustic):                                         |
Eb|-----------------------------------------------------------------|
Bb|-----------------------------------------------10----10----------|
Gb|-11--11--11-/12-12/14-14--------------------10----12-------------|
Db|--x---x---x---x--x-x---x--10-10----------12----------------------|
Ab|--9---9---9-/10-10/12-12--10-10----------------------------------|
Db|--0---0---0---------------10-10----------------------------------|

Chorus Guitar 1 (Acoustic):    
Eb|-----------------------------------------------------------------|
Bb|--3----3----3--3---3---------------10----------------------------|
Gb|--2----2----2--2---2---------------10----------------------5--5--|
Db|--0----0----0--0---0--0---10-10-0--8--------------------0--3--3--|
Ab|--0----0----0--0---0--0---10-10-0--8--------------------0--3--3--|
Db|--0----0----0--0---0--0---10-10-0--8--------------------0--3--3--|
                                                                    |
Chorus Guitar 2 (Acoustic):                                         |
Eb|-----------------------------------------------------------------|
Bb|-----------------------------------10----------------------------|
Gb|-11--11--11--------7---------------10----------------------------|
Db|--x---x---x--------7------10-10-0--8-----------------------------|
Ab|--9---9---9--------5------10-10-0--8-----------------------------|
Db|--0---0---0---------------10-10-0--8-----------------------------|

Outro Guitar 1 (Acoustic):
Eb|--0--------------------------------------------------------------|
Bb|--6--------------------------------------------------------------|
Gb|--7--------------------------------------------------------------|
Db|--7--------------------------------------------------------------|
Ab|--5--------------------------------------------------------------|
Db|--0--------------------------------------------------------------|
                                                                    |
Outro Guitar 2 (Acoustic):                                          |
Eb|--0--------------------------------------------------------------|
Bb|--6--------------------------------------------------------------|
Gb|--7--------------------------------------------------------------|
Db|--7--------------------------------------------------------------|
Ab|--5--------------------------------------------------------------|
Db|--0--------------------------------------------------------------|

Finished!
comments
We did not receive enough feedback on this tab! Please rate:
print report bad tab
1 2 3 4 5
I want to post or [tab]
guest
You may want to rate the tab now too:
select rating
Please do not post tabs as comments. Select "correction" instead!