Oops, an error
Loading. Please wait.

Beautiful Tab

ver1
ver1

Whole song

Interactive

More versions @911Tabs.com
26,745 views 30 this week
1 commentread comment
1 2 3 4 5
excellent!
x 9
Autoscroll
+/-
esc
set tempo
stop
Contributor
WARNING: You are trying to view
                                    content from Ultimate-Guitar.com
                                    in an unauthorized application,
                                    which is prohibited.

                                    Please use an official Ultimate
                                    Guitar Tabs application for iPhone,
                                    iPad or Android to access legitimate
                                    chords, guitar, bass, and drum tabs
                                    from Ultimate-Guitar.com database.

                                    Type "ultimate guitar tabs" in Apple
                                    App Store's or Android Market's
                                    search to find the application.
10 Years
Beautiful
Tabbed by U B the band
Tuning Db Ab Db Gb Bb Eb

Legend
/-slide up                    b-bend                    h-hammer on
\-slide down                  r-return bend

I was honestly surprised that there were no tabs for this song yet.
Well here it is, I hope this tab proves helpful. P.M. me for requests.

Intro Guitar 1 (Distorted with slider): 00:00 - 00:11
Eb|-----------------------------------------------------------------|
Bb|-----------------------------------------------------------------|
Gb|-----------------------------------------------------------------|
Db|--12-------------------------------------------------------------|
Ab|-----------------------------------------------------------------|
Db|-----------------------------------------------------------------|

Intro Guitar 2 (Distorted with slider): 00:00
Eb|-----------------------------------------------------------------|
Bb|-----------------------------------------------------------------|
Gb|-----------------------------------------------------------------|
Db|--12--------------------------------------/15--------------------|
Ab|-----------------------------------------------------------------|
Db|-----------------------------------------------------------------|

Intro Guitar 2
Eb|-----------------------------------------------------------------|
Bb|-----------------------------------------------------------------|
Gb|-----------------------------------------------------------------|
Db|--10/12----------------------------\10-------------\--5---\-3----|
Ab|-----------------------------------------------------------------|
Db|-----------------------------------------------------------------|
                      Guitar 1 stops --^

Verse 1 Guitar 1 (Distorted): 00:15
Eb|-----------------------------------------------------------------|
Bb|-----------------------------------------------------------------|
Gb|-----------------------------------------------------------------|
Db|--0------------------------------3--------5-----------0----------|
Ab|--0------------------------------3--------5-----------0----------|
Db|--0------------------------------3--------5-----------0----------|
                                                                    |
Verse 1 Guitar 2 (Distorted with slider): 00:15                     |
Eb|-----------------------------------------------------------------|
Bb|-----------------------------------------------------------------|
Gb|---------------------------------------------------7-------------|
Db|--7---------------------------------------------7----------------|
Ab|---------------------------------------------5-------------------|
Db|-----------------------------------------------------------------|
            ^-- lower volume and switch to clean

Verse 1 Guitar 1: (Distorted): 00:22
Eb|-----------------------------------------------------------------|
Bb|-----------------------------------------------------------------|
Gb|-----------------------------------------------------------------|
Db|-------------------------------------0---------------------------|
Ab|--3------------5---------------------0---------------------------|
Db|--3------------5---------------------0---------------------------|
                                                                    |
Verse 1 Guitar 1: (Distorted): 00:22                                |
Eb|-----------------------------------------------------------------|
Bb|------------------------5-b(6)r5---------------------------------|
Gb|---------------7--------7----------------------------------------|
Db|---------------7-------------------------------------------------|
Ab|-----------------------------------------------------------------|
Db|-----------------------------------------------------------------|

Verse 1 Guitar 1 (Distorted & palm muted): 00:28
Eb|-----------------------------------------------------------------|
Bb|-----------------------------------------------------------------|
Gb|-----------------------------------------------------------------|
Db|-----------------------------------------------------------------|
Ab|--------------------0--0--0--0--0--0--3--3--3--3--3---5--5--5--5-|
Db|--------------------0--0--0--0--0--0--3--3--3--3--3---5--5--5--5-|
                                                                    |
Verse 1 Guitar 2 (clean): 00:28                                     |
Eb|-----------------------------------------------------------------|
Bb|-----------------------------------------------------------------|
Gb|--------------------------------------------------------7-----7--|
Db|-----------------------------------------------------------7-----|
Ab|-----------------------------------------------------------------|
Db|-----------------------------------------------------------------|

Verse 1 Guitar 1 (Distorted & palm muted): 00:31
Eb|-----------------------------------------------------------------|
Bb|-----------------------------------------------------------------|
Gb|-----------------------------------------------------------------|
Db|-----------------------------------------------------------------|
Ab|--0--0--0--0--0--0--0--0--0--0--0--0--3--3--3--3--3---5--5--5--5-|
Db|--0--0--0--0--0--0--0--0--0--0--0--0--3--3--3--3--3---5--5--5--5-|
                                                                    |
Verse 1 Guitar 2 (clean): 00:31                                     |
Eb|-----------------------------------------------------------------|
Bb|--5---------------------------------------5------------8---------|
Gb|------------------------------------------7------------7---------|
Db|------------------------------------------7------------7---------|
Ab|------------------------------------------5------------5---------|
Db|-----------------------------------------------------------------|

Chorus Guitar 1 (Distorted): 00:37
Eb|-----------------------------------------------------------------|
Bb|-----------------------------------------------------------------|
Gb|-----------------------------------------------------------------|
Db|--0------0----------10----10------8------8--------0-3----3-------|
Ab|--0------0----------10----10------8------8--------0-3----3-------|
Db|--0------0----------10----10------8------8--------0-3----3-------|
                                                                    |
Chorus Guitar 2 (Distorted): 00:37                                  |
Eb|-----------------------------------------------------------------|
Bb|---------------------------------66-66-66-66-66-666--------------|
Gb|-11-----11--12/14----------------77-77-77-77-77-777--------------|
Db|--x------x---x--x---10----10------------------------3----3-------|
Ab|--9------9--10/12---10----10------------------------3----3-------|
Db|--0------0----------10----10------------------------3----3-------|

Chorus Guitar 1 (Distorted): 00:44
Eb|-----------------------------------------------------------------|
Bb|-----------------------------------------------------------------|
Gb|-----------------------------------------------------------------|
Db|--0------0----------10----10------8------8--------0-3----3-------|
Ab|--0------0----------10----10------8------8--------0-3----3-------|
Db|--0------0----------10----10------8------8--------0-3----3-------|
                                                                    |
Chorus Guitar 2 (Distorted): 00:44                                  |
Eb|-----------------------------------------------------------------|
Bb|---------------------------------66-66-66-66-66-666--------------|
Gb|-11-----11-----------------------77-77-77-77-77-777--------------|
Db|--x------x----------10----10-------------------------------------|
Ab|--9------9----------10----10-------------------------------------|
Db|--0------0----------10----10-------------------------------------|

After Chorus Guitar 1 (clean): 00:51
Eb|-----------------------------------------------------------------|
Bb|--3----------3----------6----------------------------------------|
Gb|--2----------2----------5----------------------------------------|
Db|--0----------0----------3----------------------------------------|
Ab|--0----------0----------3----------------------------------------|
Db|--0----------0----------3----------------------------------------|
                                                                    |
After Chorus Guitar 2 (Distorted):  00:51                           |
Eb|-----------------------------------------------------------------|
Bb|-----------------------------------------------------------------|
Gb|-----------------------------------------------------------------|
Db|--12------------/15--------------------------------\3-----/7-----|
Ab|-----------------------------------------------------------------|
Db|-----------------------------------------------------------------|

Verse 2 Guitar 1 (Distorted & palm muted): 00:59
Eb|-----------------------------------------------------------------|
Bb|-----------------------------------------------------------------|
Gb|-----------------------------------------------------------------|
Db|-----------------------------------------------------------------|
Ab|--0--0--0--0--0--0--0--0--0--0--0--0--3--3--3--3--3---5--5--5--5-|
Db|--0--0--0--0--0--0--0--0--0--0--0--0--3--3--3--3--3---5--5--5--5-|
                                                                    |
Verse 2 Guitar 2 (Distorted with slider): 00:59                     |
Eb|-----------------------------------------------------------------|
Bb|-----------------------------------------------------------------|
Gb|---------------------------------------------------7-------------|
Db|-(7)--------------------------------------------7----------------|
Ab|---------------------------------------------5-------------------|
Db|-----------------------------------------------------------------|
            ^-- lower volume and switch to clean

Verse 2 Guitar 1 (Distorted & palm muted): 01:05
Eb|-----------------------------------------------------------------|
Bb|-----------------------------------------------------------------|
Gb|-----------------------------------------------------------------|
Db|-----------------------------------------------------------------|
Ab|--0--0--0--0--0--0--0--0--0--0--0--0--3--3--3--3--3---5--5--5--5-|
Db|--0--0--0--0--0--0--0--0--0--0--0--0--3--3--3--3--3---5--5--5--5-|
                                                                    |
Verse 2 Guitar 2 (clean): 01:05                                     |
Eb|-----------------------------------------------------------------|
Bb|-------------------------------------------------5-b(6)r5--------|
Gb|--7-------------------------------------7--------7---------------|
Db|--7-------------------------------------7------------------------|
Ab|--5--------------------------------------------------------------|
Db|-----------------------------------------------------------------|

Verse 1 Guitar 1 (Distorted & palm muted): 01:10
Eb|-----------------------------------------------------------------|
Bb|-----------------------------------------------------------------|
Gb|-----------------------------------------------------------------|
Db|-----------------------------------------------------------------|
Ab|--0--0--0--0--0--0--0--0--0--0--0--0--3--3--3--3--3---5--5--5--5-|
Db|--0--0--0--0--0--0--0--0--0--0--0--0--3--3--3--3--3---5--5--5--5-|
                                                                    |
Verse 1 Guitar 2 (clean): 01:10                                     |
Eb|-----------------------------------------------------------------|
Bb|-----------------------------------------------------------------|
Gb|--------------------------------------------------------7-----7--|
Db|-----------------------------------------------------------7-----|
Ab|-----------------------------------------------------------------|
Db|-----------------------------------------------------------------|

Verse 1 Guitar 1 (Distorted & palm muted): 01:15
Eb|-----------------------------------------------------------------|
Bb|-----------------------------------------------------------------|
Gb|-----------------------------------------------------------------|
Db|-----------------------------------------------------------------|
Ab|--0--0--0--0--0--0--0--0--0--0--0--0--3--3--3--3--3---5--5--5--5-|
Db|--0--0--0--0--0--0--0--0--0--0--0--0--3--3--3--3--3---5--5--5--5-|
                                                                    |
Verse 1 Guitar 2 (clean): 01:15                                     |
Eb|-----------------------------------------------------------------|
Bb|--5---------------------------------------5------------8---------|
Gb|------------------------------------------7------------7---------|
Db|------------------------------------------7------------7---------|
Ab|------------------------------------------5------------5---------|
Db|-----------------------------------------------------------------|

Chorus Guitar 1 (Distorted): 01:21
Eb|-----------------------------------------------------------------|
Bb|-----------------------------------------------------------------|
Gb|-----------------------------------------------------------------|
Db|--0------0----------10----10------8------8--------0-3----3-------|
Ab|--0------0----------10----10------8------8--------0-3----3-------|
Db|--0------0----------10----10------8------8--------0-3----3-------|
                                                                    |
Chorus Guitar 2 (Distorted): 01:21                                  |
Eb|-----------------------------------------------------------------|
Bb|---------------------------------66-66-66-66-66-666--------------|
Gb|-11-----11--12/14----------------77-77-77-77-77-777--------------|
Db|--x------x---x--x---10----10------------------------3----3-------|
Ab|--9------9--10/12---10----10------------------------3----3-------|
Db|--0------0----------10----10------------------------3----3-------|

Chorus Guitar 1 (Distorted): 01:28
Eb|-----------------------------------------------------------------|
Bb|-----------------------------------------------------------------|
Gb|-----------------------------------------------------------------|
Db|--0------0----------10----10------8------8--------0-3----3-------|
Ab|--0------0----------10----10------8------8--------0-3----3-------|
Db|--0------0----------10----10------8------8--------0-3----3-------|
                                                                    |
Chorus Guitar 2 (Distorted): 01:28                                  |
Eb|-----------------------------------------------------------------|
Bb|---------------------------------66-66-66-66-66-666--------------|
Gb|-11-----11-----------------------77-77-77-77-77-777--------------|
Db|--x------x----------10----10-------------------------------------|
Ab|--9------9----------10----10-------------------------------------|
Db|--0------0----------10----10-------------------------------------|

Chorus Guitar 1 (Distorted): 01:35
Eb|-----------------------------------------------------------------|
Bb|-----------------------------------------------------------------|
Gb|-----------------------------------------------------------------|
Db|--0------0----------10------------8---------------0-3----3-------|
Ab|--0------0----------10------------8---------------0-3----3-------|
Db|--0------0----------10------------8---------------0-3----3-------|
                                                                    |
Chorus Guitar 2 (Distorted): 01:35                                  |
Eb|-----------------------------------------------------------------|
Bb|---------------------------------66-66-66-66-66-666--------------|
Gb|-11-----11--12/14----------------77-77-77-77-77-777--------------|
Db|--x------x---x--x---10------------------------------3----3-------|
Ab|--9------9--10/12---10------------------------------3----3-------|
Db|--0------0----------10------------------------------3----3-------|

Chorus Guitar 1 (Distorted): 01:43
Eb|-----------------------------------------------------------------|
Bb|-----------------------------------------------------------------|
Gb|-----------------------------------------------------------------|
Db|--0------0----------10----10------8------8--------0-3----3-------|
Ab|--0------0----------10----10------8------8--------0-3----3-------|
Db|--0------0----------10----10------8------8--------0-3----3-------|
                                                                    |
Chorus Guitar 2 (Distorted): 01:43                                  |
Eb|-----------------------------------------------------------------|
Bb|---------------------------------66-66-66-66-66-666--------------|
Gb|-11-----11-----------------------77-77-77-77-77-777--------------|
Db|--x------x----------10----10-------------------------------------|
Ab|--9------9----------10----10-------------------------------------|
Db|--0------0----------10----10-------------------------------------|

Bridge Guitar 1 (Distorted): 01:50
Eb|-----------------------------------------------------------------|
Bb|-----------------------------------------------------------------|
Gb|-----------------------------------------------------------------|
Db|--0--0--7/9\7-----7/9\7--7/9/10------8h10--10----5---------------|
Ab|--0--0--5/7\5--0--5/7\5--5/7/8-------8h10--10----5---------------|
Db|--0--0---------0---------------------8h10--10----5---------------|
                                                                    |
Bridge Guitar 2 (Distorted with slider): 01:50                      |
Eb|-----------------------10-----\5---------------------------------|
Bb|-----------------------------------------------------------------|
Gb|-----------------------------------------------------------------|
Db|-----------------------------------------------------------------|
Ab|-----------------------------------------------------------------|
Db|-----------------------------------------------------------------|

Bridge Guitar 1 (Distorted): 01:57
Eb|-----------------------------------------------------------------|
Bb|-----------------------------------------------------------------|
Gb|-----------------------------------------------------------------|
Db|--0--0--7/9\7-----7/9\7--7/9/10------8--8h10----5----------------|
Ab|--0--0--5/7\5--0--5/7\5--5/7/8-------8--8h10----5----------------|
Db|--0--0---------0---------------------8--8h10----5----------------|
                                                                    |
Bridge Guitar 2 (Distorted with slider): 01:57                      |
Eb|-----------------------10-----\5---------------------------------|
Bb|-----------------------------------------------------------------|
Gb|-----------------------------------------------------------------|
Db|-----------------------------------------------------------------|
Ab|-----------------------------------------------------------------|
Db|----------------------------------------------------44/49\48/49--|
The bottom of this tab gives a how to about this slide--^

Bridge Guitar 1 (Distorted): 02:04
Eb|-----------------------------------------------------------------|
Bb|-----------------------------------------------------------------|
Gb|-----------------------------------------------------------------|
Db|--0--0--7/9\7-----7/9\7--7/9/10------8h10--10----5---------------|
Ab|--0--0--5/7\5--0--5/7\5--5/7/8-------8h10--10----5---------------|
Db|--0--0---------0---------------------8h10--10----5---------------|
                                                                    |
Bridge Guitar 2 (Distorted with slider): 02:04                      |
Eb|-----------------------10-----\5---------------------------------|
Bb|-----------------------------------------------------------------|
Gb|-----------------------------------------------------------------|
Db|-----------------------------------------------------------------|
Ab|-----------------------------------------------------------------|
Db|-----------------------------------------------------------------|

Bridge Guitar 1 (Distorted): 02:11
Eb|-----------------------------------------------------------------|
Bb|-----------------------------------------------------------------|
Gb|-----------------------------------------------------------------|
Db|--0--0--7/9\7-----7/9\7--7/9/10------8----10----8----10-----5-0--|
Ab|--0--0--5/7\5--0--5/7\5--5/7/8-------8----10----8----10-----5-0--|
Db|--0--0---------0---------------------8----10----8----10-----5-0--|
                                                                    |
Bridge Guitar 2 (Distorted with slider): 02:11                      |
Eb|-----------------------10-----\5------------------------------5--|
Bb|-----------------------------------------------------------------|
Gb|-----------------------------------------------------------------|
Db|-----------------------------------------------------------------|
Ab|-----------------------------------------------------------------|
Db|-----------------------------------------------------------------|

Chorus Guitar 3 (Clean): 02:22
Eb|-----------------------------------------------------------------|
Bb|--3----3----3-3--3-3---------------------------------------------|
Gb|--2----2----2-2--2-2---5--5-------3----3----3-3--3-3-------------|
Db|--0----0----0-0--0-0---5--5---0---3----3----3-3--3-3---0--3--3---|
Ab|--0----0----0-0--0-0---3--3---0---1----1----1-1--1-1---0--3--3---|
Db|--0----0----0-0--0-0----------0------------------------0--3--3---|

Chorus Guitar 3 (Clean): 02:30
Eb|-----------------------------------------------------------------|
Bb|--3----3----3-3--3-3---------------------------------------------|
Gb|--2----2----2-2--2-2---5--5-------3------------------------------|
Db|--0----0----0-0--0-0---5--5---0---3------------------------------|
Ab|--0----0----0-0--0-0---3--3---0---1------------------------------|
Db|--0----0----0-0--0-0----------0----------------------------------|

Chorus Guitar 1 (Distorted): 02:37
Eb|-----------------------------------------------------------------|
Bb|-----------------------------------------------------------------|
Gb|-----------------------------------------------------------------|
Db|--0------0----------10----10------8------8--------0-3----3-------|
Ab|--0------0----------10----10------8------8--------0-3----3-------|
Db|--0------0----------10----10------8------8--------0-3----3-------|
                                                                    |
Chorus Guitar 2 (Distorted): 02:37                                  |
Eb|-----------------------------------------------------------------|
Bb|---------------------------------66-66-66-66-66-666--------------|
Gb|-11-----11--12/14----------------77-77-77-77-77-777--------------|
Db|--x------x---x--x---10----10------------------------3----3-------|
Ab|--9------9--10/12---10----10------------------------3----3-------|
Db|--0------0----------10----10------------------------3----3-------|

Chorus Guitar 1 (Distorted): 02:45
Eb|-----------------------------------------------------------------|
Bb|-----------------------------------------------------------------|
Gb|-----------------------------------------------------------------|
Db|--0------0----------10----10------8------8--------0-3----3-------|
Ab|--0------0----------10----10------8------8--------0-3----3-------|
Db|--0------0----------10----10------8------8--------0-3----3-------|
                                                                    |
Chorus Guitar 2 (Distorted): 02:45                                  |
Eb|-----------------------------------------------------------------|
Bb|---------------------------------66-66-66-66-66-666--------------|
Gb|-11-----11-----------------------77-77-77-77-77-777--------------|
Db|--x------x----------10----10-------------------------------------|
Ab|--9------9----------10----10-------------------------------------|
Db|--0------0----------10----10-------------------------------------|

Chorus Guitar 1 (Distorted): 02:52
Eb|-----------------------------------------------------------------|
Bb|-----------------------------------------------------------------|
Gb|-----------------------------------------------------------------|
Db|--0------0----------10------------8---------------0-3----3-------|
Ab|--0------0----------10------------8---------------0-3----3-------|
Db|--0------0----------10------------8---------------0-3----3-------|
                                                                    |
Chorus Guitar 2 (Distorted): 02:52                                  |
Eb|-----------------------------------------------------------------|
Bb|---------------------------------66-66-66-66-66-666--------------|
Gb|-11-----11--12/14----------------77-77-77-77-77-777--------------|
Db|--x------x---x--x---10------------------------------3----3-------|
Ab|--9------9--10/12---10------------------------------3----3-------|
Db|--0------0----------10------------------------------3----3-------|

Chorus Guitar 1 (Distorted): 02:59
Eb|-----------------------------------------------------------------|
Bb|-----------------------------------------------------------------|
Gb|-----------------------------------------------------------------|
Db|--0------0----------10----10------8------8---------------0-------|
Ab|--0------0----------10----10------8------8---------------0-------|
Db|--0------0----------10----10------8------8---------------0-------|
                                                                    |
Chorus Guitar 2 (Distorted): 02:59                                  |
Eb|-----------------------------------------------------------------|
Bb|---------------------------------66-66-66-66-66-666--------------|
Gb|-11-----11-----------------------77-77-77-77-77-777--------------|
Db|--x------x----------10----10-----------------------------0-------|
Ab|--9------9----------10----10-----------------------------0-------|
Db|--0------0----------10----10-----------------------------0-------|


Finished!


They used a slide for the sound at 02:04. To know that you're in the 
right spot use frets 12 to 15 as an example of the length of frets 25 
to 49. Slide up starting at 44 to 49, then to 48 and back to 49. It’s 
about the length of 14 to 15. It took me a little a while to find out 
where they do the slide but I assure you that it's correct. I'll try 
to post a video of this tab on YouTube. Thanks.
comments
print report bad tab
1 comment total.
+1 reply
wes_jett2008 wrote on June 13 2008, 10:52 pm

Pretty good tab,I played along to it and it seems correct...I think the bridge is just single notes insted of chords but both sound okay...thats about it...5 stars.

I want to post or [tab]
guest
You may want to rate the tab now too:
select rating
Please do not post tabs as comments. Select "correction" instead!