Oops, an error
Loading. Please wait.

Fix Me Bass Tab

308 views 6 this week
no commentswrite comment
1 2 3 4 5
please rate
Autoscroll
+/-
esc
set tempo
stop
Contributor
Difficulty
Tuning
novice
C# G# C# F# A# D#
WARNING: You are trying to view
                                    content from Ultimate-Guitar.com
                                    in an unauthorized application,
                                    which is prohibited.

                                    Please use an official Ultimate
                                    Guitar Tabs application for iPhone,
                                    iPad or Android to access legitimate
                                    chords, guitar, bass, and drum tabs
                                    from Ultimate-Guitar.com database.

                                    Type "ultimate guitar tabs" in Apple
                                    App Store's or Android Market's
                                    search to find the application.

Verse
F#|-----------------------------------------------------------------|
C#|-----------5-7-----5-----5-7-5-----------------------------------|
G#|---------8-------------8-------8---------------------------------|
C#|-0-------------------------------8-------------8-----8---8---\---|
    1 + 2 + 3 + 4 + 1 + 2 + 3 + 4 + 1 + 2 + 3 + 4 + 1 + 2 + 3 + 4 + 

F#|--------------------------------------------------------------------|
C#|-----------5h7-----5-----5-7-5--------------------------------------|
G#|-----------------------8-------8------------------------------------|
C#|-0-------------------------------8-------------8-----8---8-10-10-10-|
    1 + 2 + 3 + 4 + 1 + 2 + 3 + 4 + 1 + 2 + 3 + 4 + 1 + 2 + 3 +  4  + 

F#|-----------------------------------------------------------------|
C#|-----------/-7-----5-----5-7-5-----------------------------------|
G#|-----------------------8-------8---------------------------------|
C#|-0-------------------------------8-------------8-----8---8---\---|
    1 + 2 + 3 + 4 + 1 + 2 + 3 + 4 + 1 + 2 + 3 + 4 + 1 + 2 + 3 + 4 + 

F#|--------------------------------------------------------------------|
C#|-----------5h7-----5-----5-7-5--------------------------------------|
G#|-----------------------8-------8------------------------------------|
C#|-0-------------------------------8-------------8-----8---8-10-10-10-|
    1 + 2 + 3 + 4 + 1 + 2 + 3 + 4 + 1 + 2 + 3 + 4 + 1 + 2 + 3 +  4  + 

Pre Chorus 0:30
F#|-----------------------------------------------------------------|
C#|-----------------------------------------------------------------|
G#|-------------------------------0-1-----------------------------0-|
C#|-8-0---0-0---0-----------0-3-5-----0---0-0---0---------5-0-3-5---|
    1 + 2 + 3 + 4 + 1 + 2 + 3 + 4 + 1 + 2 + 3 + 4 + 1 + 2 + 3 + 4 + 

F#|-----------------------------------------------------------------|
C#|-----------------------------------------------------------------|
G#|-1---------------------------3-5-1-1-1-1-1-1-1-1-1-3-3-3---------|
C#|---0---0-0---0-0-----0---0---------------------------------------|
    1 + 2 + 3 + 4 + 1 + 2 + 3 + 4 + 1 + 2 + 3 + 4 + 1 + 2 + 3 + 4 + 

Chorus 0:42
F#|-----------------------------------------------------------------|
C#|-----------------------------------------------------------------|
G#|-1---1---1-----1---1-1---1-------1-3-3---3-----3---3-3---3-------|
C#|-----------------------------------------------------------------|
    1 + 2 + 3 + 4 + 1 + 2 + 3 + 4 + 1 + 2 + 3 + 4 + 1 + 2 + 3 + 4 + 

F#|-----------------------------------------------------------------|
C#|-----------------------------------------------------------------|
G#|-----------------------------------------0-0-0-0-1-1-1-1-3-3-3-3-|
C#|-5---5---5-----5---5-5---5-------5-5-5-5-------------------------|
    1 + 2 + 3 + 4 + 1 + 2 + 3 + 4 + 1 + 2 + 3 + 4 + 1 + 2 + 3 + 4 +

F#|-----------------------------------------------------------------|
C#|-----------------------------------------------------------------|
G#|-1-------1-----1---1-1---1---1---1-3-3---3-----3---3-3---3---3---|
C#|-----------------------------------------------------------------|
    1 + 2 + 3 + 4 + 1 + 2 + 3 + 4 + 1 + 2 + 3 + 4 + 1 + 2 + 3 + 4 + 

F#|-----------------------------------------------------------------|
C#|-----------------------------------------------------------------|
G#|-----------------------------------------0-0-0-0-1-1-1-1-3-3-3-3-|
C#|-5---5---5-----5---5-5---5-------5-5-5-5-------------------------|
    1 + 2 + 3 + 4 + 1 + 2 + 3 + 4 + 1 + 2 + 3 + 4 + 1 + 2 + 3 + 4 +

Interlude 1:06
F#|-----------------------------------------------------------------|
C#|-----------------------------------------------------------------|
G#|-----------------------------------------------------------------|
C#|-0-------------------------------0-------------------------0-3-5-|
    1 + 2 + 3 + 4 + 1 + 2 + 3 + 4 + 1 + 2 + 3 + 4 + 1 + 2 + 3 + 4 + 

Verse 1:12
F#|-----------------------------------------------------------------|
C#|-----------/-7-----5-----5-7-5-----------------------------------|
G#|-----------------------8-------8---------------------------------|
C#|-0-------------------------------8-------------8-----8---8---\---|
    1 + 2 + 3 + 4 + 1 + 2 + 3 + 4 + 1 + 2 + 3 + 4 + 1 + 2 + 3 + 4 + 

F#|--------------------------------------------------------------------|
C#|-----------5h7-----5-----5-7-5--------------------------------------|
G#|-----------------------8-------8------------------------------------|
C#|-0-------------------------------8-------------8-----8---8-10-10-10-|
    1 + 2 + 3 + 4 + 1 + 2 + 3 + 4 + 1 + 2 + 3 + 4 + 1 + 2 + 3 +  4  + 

Pre Chorus 1:24
F#|-----------------------------------------------------------------|
C#|-----------------------------------------------------------------|
G#|-------------------------------0-1-----------------------------0-|
C#|-8-0---0-0---0-----------0-3-5-----0---0-0---0---------5-0-3-5---|
    1 + 2 + 3 + 4 + 1 + 2 + 3 + 4 + 1 + 2 + 3 + 4 + 1 + 2 + 3 + 4 + 

F#|-----------------------------------------------------------------|
C#|-----------------------------------------------------------------|
G#|-1---------------------------3-5-1-1-1-1-1-1-1-1-1-3-3-3---------|
C#|---0---0-0---0-0-----0---0---------------------------------------|
    1 + 2 + 3 + 4 + 1 + 2 + 3 + 4 + 1 + 2 + 3 + 4 + 1 + 2 + 3 + 4 + 

Chorus 1:36
F#|-----------------------------------------------------------------|
C#|-----------------------------------------------------------------|
G#|-1---1---1-----1---1-1---1-------1-3-3---3-----3-----3---3-------|
C#|---------------------------------------------------5-------------|
    1 + 2 + 3 + 4 + 1 + 2 + 3 + 4 + 1 + 2 + 3 + 4 + 1 + 2 + 3 + 4 + 

F#|-----------------------------------------------------------------|
C#|-----------------------------------------------------------------|
G#|-----------------------------------------0-0-0-0-1-1-1-1-3-3-3-3-|
C#|-5---5---5-----5---5-5---5-------5-5-5-5-------------------------|
    1 + 2 + 3 + 4 + 1 + 2 + 3 + 4 + 1 + 2 + 3 + 4 + 1 + 2 + 3 + 4 +

F#|-----------------------------------------------------------------|
C#|-----------------------------------------------------------------|
G#|-1---1---1-----1-----1---1-------1-3-3---3-----3---3-3---3---3---|
C#|-------------------3---------------------------------------------|
    1 + 2 + 3 + 4 + 1 + 2 + 3 + 4 + 1 + 2 + 3 + 4 + 1 + 2 + 3 + 4 + 

F#|-----------------------------------------------------------------|
C#|-----------------------------------------------------------------|
G#|-----------------------------------------0-0-0-0-1-1-1-1-3-3-3-3-|
C#|-5---5---5-----5---3-5---5---5---5-5-5-5-------------------------|
    1 + 2 + 3 + 4 + 1 + 2 + 3 + 4 + 1 + 2 + 3 + 4 + 1 + 2 + 3 + 4 +

Bridge 2:00
F#|-----------------------------------------------------------------|
C#|-------------------------------------------------------3-------3-|
G#|-------------------------------0-5p3---------------3-5---5-3-5---|
C#|-----------------0-0-0-0-0-3-5-------0-0-0-0-0-0-0---------------|
    1 + 2 + 3 + 4 + 1 + 2 + 3 + 4 + 1 + 2 + 3 + 4 + 1 + 2 + 3 + 4 + 

F#|-----------------------------------------------------------------|
C#|-------------------5-7-----------------------------3-2---0-2-0---|
G#|-----------------------3-5-7-5-3-----------------------3-------3-|
C#|-0-0-0-0-0-0-0-0-0---------------0-0-0-0-0-0-0-0-0---------------|
    1 + 2 + 3 + 4 + 1 + 2 + 3 + 4 + 1 + 2 + 3 + 4 + 1 + 2 + 3 + 4 + 

F#|-----------------------------------------------------------------|
C#|-------------------------------3-----------------------------2-3-|
G#|-------------------3-5-3-5-3-5-------------------5-0-3-0-3-0-----|
C#|-0-0-0-0-0-0-0-0-0---------------0-0-0-0-0-0-0-0-----------------|
    1 + 2 + 3 + 4 + 1 + 2 + 3 + 4 + 1 + 2 + 3 + 4 + 1 + 2 + 3 + 4 + 

F#|-----------------------------------------------------------------|
C#|-------------------3-2-------------------------------------------|
G#|-----------------------3-5-3-0-5---------------------------------|
C#|-0-0-0-0-0-0-0-0-0---------------0-0-0-0-0-0-0-0-0-0-0-0-0-0-0-0-|
    1 + 2 + 3 + 4 + 1 + 2 + 3 + 4 + 1 + 2 + 3 + 4 + 1 + 2 + 3 + 4 + 

Rest
 
Pre Chorus 2:34
F#|---------------------------------|
C#|---------------------------------|
G#|-1-1-1-1-1-1-1-1-1-3-3-3---------|
C#|---------------------------------|
    1 + 2 + 3 + 4 + 1 + 2 + 3 + 4 +  

Chorus 2:37
F#|-----------------------------------------------------------------|
C#|-----------------------------------------------------------------|
G#|-1---1---1-----1---1-1---1-------1-3-3---3-----3-----3---3-------|
C#|---------------------------------------------------5-------------|
    1 + 2 + 3 + 4 + 1 + 2 + 3 + 4 + 1 + 2 + 3 + 4 + 1 + 2 + 3 + 4 + 

F#|-----------------------------------------------------------------|
C#|-----------------------------------------------------------------|
G#|-----------------------------------------0-0-0-0-1-1-1-1-3-3-3-3-|
C#|-5---5---5-----5---5-5---5-------5-5-5-5-------------------------|
    1 + 2 + 3 + 4 + 1 + 2 + 3 + 4 + 1 + 2 + 3 + 4 + 1 + 2 + 3 + 4 +

F#|-----------------------------------------------------------------|
C#|-----------------------------------------------------------------|
G#|-1-1-1-1-1-----1-----1---1-------1-3-3-3-3-----3---3-3---3---3---|
C#|-------------------3---------------------------------------------|
    1 + 2 + 3 + 4 + 1 + 2 + 3 + 4 + 1 + 2 + 3 + 4 + 1 + 2 + 3 + 4 + 

F#|-----------------------------------------------------------------|
C#|-----------------------------------------------------------------|
G#|-----------------------------------------0-0-0-0-1-1-1-1-3-3-3-3-|
C#|-5-5-5-5-5-----5---5-5---5-------5-5-5-5-------------------------|
    1 + 2 + 3 + 4 + 1 + 2 + 3 + 4 + 1 + 2 + 3 + 4 + 1 + 2 + 3 + 4 +

F#|-----------------------------------------------------------------|
C#|-----------------------------------------------------------------|
G#|-1-1-1-1-1-----1---1-1---1-------1-3-3-3-3-----3---3-3-3-3-3-3---|
C#|-----------------------------------------------------------------|
    1 + 2 + 3 + 4 + 1 + 2 + 3 + 4 + 1 + 2 + 3 + 4 + 1 + 2 + 3 + 4 + 

F#|-----------------------------------------------------------------|
C#|-----------------------------------------------------------------|
G#|-----------------------------------------0-0-0-0-1-1-1-1-3-3-3-3-|
C#|-5-5-5-5-5-----5---5-5---5-------5-5-5-5-------------------------|
    1 + 2 + 3 + 4 + 1 + 2 + 3 + 4 + 1 + 2 + 3 + 4 + 1 + 2 + 3 + 4 +

Outro 3:13
F#|-----------------------------------------------------------------|
C#|-------------------------3-5-------------------------------------|
G#|-------------------3-5-------3-5---------------------------------|
C#|-8-0---0-0---8-0-----------------8-0---0-0---8-0---0-0-----------|
    1 + 2 + 3 + 4 + 1 + 2 + 3 + 4 + 1 + 2 + 3 + 4 + 1 + 2 + 3 + 4 + 
Tabbed by Dave Vucko

*Requested by: 6METAL6BASSIST6
comments
We did not receive enough feedback on this tab! Please rate:
print report bad tab
1 2 3 4 5
I want to post or [tab]
guest
You may want to rate the tab now too:
select rating
Please do not post tabs as comments. Select "correction" instead!