Oops, an error
Loading. Please wait.

Focus Tab

4,986 views 6 this week
1 commentread comment
1 2 3 4 5
excellent!
x 3
Autoscroll
+/-
esc
set tempo
stop
Contributor
Hey! There's an official Ultimate Guitar app which is ideal
for learning songs when you're away from computer. Get the app
WARNING: You are trying to view
                                    content from Ultimate-Guitar.com
                                    in an unauthorized application,
                                    which is prohibited.

                                    Please use an official Ultimate
                                    Guitar Tabs application for iPhone,
                                    iPad or Android to access legitimate
                                    chords, guitar, bass, and drum tabs
                                    from Ultimate-Guitar.com database.

                                    Type "ultimate guitar tabs" in Apple
                                    App Store's or Android Market's
                                    search to find the application.
10 Years                         *UPDATE 7/24/2008 UPDATE*
Focus
Tuning B F# B E G# C#
Tabbed by U B the band

Legend
/-slide up                                p-pull off                                ()-optional
\-slide down                              h-hammer on

The first tab is the real tuning, Drop B, and the Drop Db follows after.

Intro: Guitar 1 (Acoustic)
|--------------------------------------------------------------------------------------------------|
|--------------------14--14-14--14--14-14--14-14----------------------14--14-14--14--14-14--14-14--|
|---------------------x---x--x---x---x--x---x--x-----------------------x---x--x---x---x--x---x--x--|
|--2-/-4-\-2---4--/--11--11-11--11--11-11--11-11----2-/-4-\-2---4--/--11--11-11--11--11-11--11-11--|
|--0------------------------------------------------0----------------------------------------------|
|--------------------------------------------------------------------------------------------------|

Verse 1: Guitar 1 (Acoustic)
|--------------------------------------------------------------------------------------------------|
|--------------------14--14-14--14--14-14--14-14----------------------14--14-14--14--14-14--14-14--|
|---------------------x---x--x---x---x--x---x--x-----------------------x---x--x---x---x--x---x--x--|
|--2-/-4-\-2---4--/--11--11-11--11--11-11--11-11----2-/-4-\-2---4--/--11--11-11--11--11-11--11-11--|
|--0------------------------------------------------0----------------------------------------------|
|--------------------------------------------------------------------------------------------------|

Verse 1: Guitar 1 (Acoustic)
|--------------------------------------------------------------------------------------------------|
|--------------------14--12-12--14--12-12--14-12----------------------14--12-12--14--12-12--14-12--|
|---------------------x---x--x---x---x--x---x--x-----------------------x---x--x---x---x--x---x--x--|
|--2-/-4-\-2------/--11--11-11--11--11-11--11-11----2-/-4-\-2------/--11--11-11--11--11-11--11-11--|
|--0------------------------------------------------0----------------------------------------------|
|--------------------------------------------------------------------------------------------------|

Pre-Chorus: Guitar 1 (Acoustic)
|--------------------------------------------------------------------------------------------------|
|--12---------10-----------8-----------7------------------------------14--14-14--14--14-14--14-14--|
|--12----------9-----------7-----------7-------------------------------x---x--x---x---x--x---x--x--|
|--10----------9-----------5------------------------2-/-4-\-2---4--/--11--11-11--11--11-11--11-11--|
|---------------------------------------------------0----------------------------------------------|
|--------------------------------------------------------------------------------------------------|
                                                                                                   |
Pre-Chorus: Guitar 2 (Clean electric)                                                              |
|---------------------------------------------------0----------------------------------------------|
|--12---------10-----------8-----------7------------5----------------------------------------------|
|--12----------9-----------7-----------7------------6----------------------------------------------|
|--10----------9-----------5------------------------7----------------------------------------------|
|--------------------------------------------------------------------------------------------------|
|--------------------------------------------------------------------------------------------------|

Pre-Chorus: Guitar 1 (Acoustic)
|------------------5-------------------------------------------------------------------------------|
|---8-/-10-\--8----8-----------7--------------------------------------14--14-14--14--14-14--14-14--|
|---7-/--9-\--7----7-------6---6---------------------------------------x---x--x---x---x--x---x--x--|
|---5-/--7-\--5----5-------4---4--------------------2-/-4-\-2------/--11--11-11--11--11-11--11-11--|
|---------------------------------------------------0----------------------------------------------|
|--------------------------------------------------------------------------------------------------|
                                                                                                   |
Pre-Chorus: Guitar 2 (Clean electric)                                                              |
|------------------5-------------------------------------------------------------------------------|
|---8-/-10-\--8----8-----------7-------------------------------------------------------------------|
|---7-/--9-\--7----7-------6---6-------------------------------------------------------------------|
|---5-/--7-\--5----5-------4---4-------------------------------------------------------------------|
|--------------------------------------------------------------------------------------------------|
|--------------------------------------------------------------------------------------------------|

Chorus: Guitar 1 (Acoustic) *Strum*
|--------------------------------------------------------------------------------------------------|
|--------------------------------------------------------------------------------------------------|
|--9----------------------------------------------9------------------------------------------------|
|--7----------------------------------------------10-----------------------------------------------|
|--7----------------------------------------------8------------------------------------------------|
|--7-----------------------------------------------------------------------------------------------|
                                                                                                   |
Chorus: Guitar 2 (Distorted)                                                                       |
|--------------------------------------------------------------------------------------------------|
|--------------------------------------------------------------------------------------------------|
|-------------------------------------------------2----------------------------2--------------2----|
|--2------------------2p0----------2p0-------------------------------2-p-0--2-------2-p-0--2-------|
|--------------------------3/5--0-------3/5--0-----------------------------------------------------|
|--------------------------------------------------------------------------------------------------|
                                                                                                   |
Chorus: Guitar 3 (Distorted) *studio fill in guitar*                                               |
|--------------------------------------------------------------------------------------------------|
|-------------------------------------------------5------------------------------------------------|
|--9----------------------------------------------5------------------------------------------------|
|--7----------------------------------------------3------------------------------------------------|
|--7----------------------------------------------3------------------------------------------------|
|--7----------------------------------------------3------------------------------------------------|
                                                                                                   |
Chorus: Guitar 4 (Clean with slide) *studio fill in guitar*                                        |
|-------------------------------------5-----------3------------------------------------------------|
|--------------------------------------------------------------------------------------------------|
|--------------------------------------------------------------------------------------------------|
|--------------------------------------------------------------------------------------------------|
|--------------------------------------------------------------------------------------------------|
|--------------------------------------------------------------------------------------------------|

Chorus: Guitar 1 (Acoustic) *Strum*
|--------------------------------------------------------------------------------------------------|
|--------------------------------------------------------------------------------------------------|
|--9----------------------------------------------9------------------------------------------------|
|--7----------------------------------------------10-----------------------------------------------|
|--7----------------------------------------------8------------------------------------------------|
|--7-----------------------------------------------------------------------------------------------|
                                                                                                   |
Chorus: Guitar 2 (Distorted)                                                                       |
|--------------------------------------------------------------------------------------------------|
|--------------------------------------------------------------------------------------------------|
|-------------------------------------------------2----------------------------2--------------2----|
|--2------------------2p0----------2p0-------------------------------2-p-0--2-------2-p-0--2-------|
|--------------------------3/5--0-------3/5--0-----------------------------------------------------|
|--------------------------------------------------------------------------------------------------|
                                                                                                   |
Chorus: Guitar 3 (Distorted) *studio fill in guitar*                                               |
|--------------------------------------------------------------------------------------------------|
|-------------------------------------------------5------------------------------------------------|
|--9----------------------------------------------5------------------------------------------------|
|--7----------------------------------------------3------------------------------------------------|
|--7----------------------------------------------3------------------------------------------------|
|--7----------------------------------------------3------------------------------------------------|
                                                                                                   |
Chorus: Guitar 4 (Clean with slide) *studio fill in guitar*                                        |
|-------------------------------------5-----------3------------------------------------------------|
|--------------------------------------------------------------------------------------------------|
|--------------------------------------------------------------------------------------------------|
|--------------------------------------------------------------------------------------------------|
|--------------------------------------------------------------------------------------------------|
|--------------------------------------------------------------------------------------------------|

Post Chorus: Guitar 1 (Acoustic)
|--------------------------------------------------------------------------------------------------|
|--------------------14--14-14--14--14-14--14-14----------------------14--14-14--14--14-14--14-14--|
|---------------------x---x--x---x---x--x---x--x-----------------------x---x--x---x---x--x---x--x--|
|--2-/-4-\-2---4--/--11--11-11--11--11-11--11-11----2-/-4-\-2---4--/--11--11-11--11--11-11--11-11--|
|--0------------------------------------------------0----------------------------------------------|
|--------------------------------------------------------------------------------------------------|
                                                                                                   |
Post Chorus: Guitar 3 (Distorted)                                                                  |
|--------------------------------------------------------------------------------------------------|
|--------------------------------------------------------------------------------------------------|
|--9-----------------------------------------------------------------------------------------------|
|--7-----------------------------------------------------------------------------------------------|
|--7-----------------------------------------------------------------------------------------------|
|--7-----------------------------------------------------------------------------------------------|

Verse 2: Guitar 1 (Acoustic)
|--------------------------------------------------------------------------------------------------|
|--------------------14--14-14--14--14-14--14-14----------------------14--14-14--14--14-14--14-14--|
|---------------------x---x--x---x---x--x---x--x-----------------------x---x--x---x---x--x---x--x--|
|--2-/-4-\-2---4--/--11--11-11--11--11-11--11-11----2-/-4-\-2---4--/--11--11-11--11--11-11--11-11--|
|--0------------------------------------------------0----------------------------------------------|
|--------------------------------------------------------------------------------------------------|

Verse 2: Guitar 1 (Acoustic)
|--------------------------------------------------------------------------------------------------|
|--------------------14--12-12--14--12-12--14-12----------------------14--12-12--14--12-12--14-12--|
|---------------------x---x--x---x---x--x---x--x-----------------------x---x--x---x---x--x---x--x--|
|--2-/-4-\-2------/--11--11-11--11--11-11--11-11----2-/-4-\-2------/--11--11-11--11--11-11--11-11--|
|--0------------------------------------------------0----------------------------------------------|
|--------------------------------------------------------------------------------------------------|

Pre-Chorus: Guitar 1 (Acoustic)
|--------------------------------------------------------------------------------------------------|
|--12---------10-----------8-----------7------------------------------14--14-14--14--14-14--14-14--|
|--12----------9-----------7-----------7-------------------------------x---x--x---x---x--x---x--x--|
|--10----------9-----------5------------------------2-/-4-\-2---4--/--11--11-11--11--11-11--11-11--|
|---------------------------------------------------0----------------------------------------------|
|--------------------------------------------------------------------------------------------------|
                                                                                                   |
Pre-Chorus: Guitar 2 (Clean electric)                                                              |
|---------------------------------------------------0----------------------------------------------|
|--12---------10-----------8-----------7------------5----------------------------------------------|
|--12----------9-----------7-----------7------------6----------------------------------------------|
|--10----------9-----------5------------------------7----------------------------------------------|
|--------------------------------------------------------------------------------------------------|
|--------------------------------------------------------------------------------------------------|

Pre-Chorus: Guitar 1 (Acoustic)
|------------------5-------------------------------------------------------------------------------|
|---8-/-10-\--8----8-----------7--------------------------------------14--14-14--14--14-14--14-14--|
|---7-/--9-\--7----7-------6---6---------------------------------------x---x--x---x---x--x---x--x--|
|---5-/--7-\--5----5-------4---4--------------------2-/-4-\-2------/--11--11-11--11--11-11--11-11--|
|---------------------------------------------------0----------------------------------------------|
|--------------------------------------------------------------------------------------------------|
                                                                                                   |
Pre-Chorus: Guitar 2 (Clean electric)                                                              |
|------------------5-------------------------------------------------------------------------------|
|---8-/-10-\--8----8-----------7-------------------------------------------------------------------|
|---7-/--9-\--7----7-------6---6-------------------------------------------------------------------|
|---5-/--7-\--5----5-------4---4-------------------------------------------------------------------|
|--------------------------------------------------------------------------------------------------|
|--------------------------------------------------------------------------------------------------|

Chorus: Guitar 1 (Acoustic) *Strum*
|--------------------------------------------------------------------------------------------------|
|--------------------------------------------------------------------------------------------------|
|--9----------------------------------------------9------------------------------------------------|
|--7----------------------------------------------10-----------------------------------------------|
|--7----------------------------------------------8------------------------------------------------|
|--7-----------------------------------------------------------------------------------------------|
                                                                                                   |
Chorus: Guitar 2 (Distorted)                                                                       |
|--------------------------------------------------------------------------------------------------|
|--------------------------------------------------------------------------------------------------|
|-------------------------------------------------2----------------------------2--------------2----|
|--2------------------2p0----------2p0-------------------------------2-p-0--2-------2-p-0--2-------|
|--------------------------3/5--0-------3/5--0-----------------------------------------------------|
|--------------------------------------------------------------------------------------------------|
                                                                                                   |
Chorus: Guitar 3 (Distorted) *studio fill in guitar*                                               |
|--------------------------------------------------------------------------------------------------|
|-------------------------------------------------5------------------------------------------------|
|--9----------------------------------------------5------------------------------------------------|
|--7----------------------------------------------3------------------------------------------------|
|--7----------------------------------------------3------------------------------------------------|
|--7----------------------------------------------3------------------------------------------------|
                                                                                                   |
Chorus: Guitar 4 (Clean with slide) *studio fill in guitar*                                        |
|-------------------------------------5-----------3------------------------------------------------|
|--------------------------------------------------------------------------------------------------|
|--------------------------------------------------------------------------------------------------|
|--------------------------------------------------------------------------------------------------|
|--------------------------------------------------------------------------------------------------|
|--------------------------------------------------------------------------------------------------|

Chorus: Guitar 1 (Acoustic) *Strum*
|--------------------------------------------------------------------------------------------------|
|--------------------------------------------------------------------------------------------------|
|--9----------------------------------------------9------------------------------------------------|
|--7----------------------------------------------10-----------------------------------------------|
|--7----------------------------------------------8------------------------------------------------|
|--7-----------------------------------------------------------------------------------------------|
                                                                                                   |
Chorus: Guitar 2 (Distorted)                                                                       |
|--------------------------------------------------------------------------------------------------|
|--------------------------------------------------------------------------------------------------|
|-------------------------------------------------2----------------------------2--------------2----|
|--2------------------2p0----------2p0-------------------------------2-p-0--2-------2-p-0--2-------|
|--------------------------3/5--0-------3/5--0-----------------------------------------------------|
|--------------------------------------------------------------------------------------------------|
                                                                                                   |
Chorus: Guitar 3 (Distorted) *studio fill in guitar*                                               |
|--------------------------------------------------------------------------------------------------|
|-------------------------------------------------5------------------------------------------------|
|--9----------------------------------------------5------------------------------------------------|
|--7----------------------------------------------3------------------------------------------------|
|--7----------------------------------------------3------------------------------------------------|
|--7----------------------------------------------3------------------------------------------------|
                                                                                                   |
Chorus: Guitar 4 (Clean with slide) *studio fill in guitar*                                        |
|-------------------------------------5-----------3------------------------------------------------|
|--------------------------------------------------------------------------------------------------|
|--------------------------------------------------------------------------------------------------|
|--------------------------------------------------------------------------------------------------|
|--------------------------------------------------------------------------------------------------|
|--------------------------------------------------------------------------------------------------|

Post Chorus: Guitar 1 (Acoustic)
|--------------------------------------------------------------------------------------------------|
|--------------------14--14-14--14--14-14--14-14----------------------14--14-14--14--14-14--14-14--|
|---------------------x---x--x---x---x--x---x--x-----------------------x---x--x---x---x--x---x--x--|
|--2-/-4-\-2---4--/--11--11-11--11--11-11--11-11----2-/-4-\-2---4--/--11--11-11--11--11-11--11-11--|
|--0------------------------------------------------0----------------------------------------------|
|--------------------------------------------------------------------------------------------------|
                                                                                                   |
Post Chorus: Guitar 3 (Distorted)                                                                  |
|--------------------------------------------------------------------------------------------------|
|--------------------------------------------------------------------------------------------------|
|--9-----------------------------------------------------------------------------------------------|
|--7-----------------------------------------------------------------------------------------------|
|--7-----------------------------------------------------------------------------------------------|
|--7-----------------------------------------------------------------------------------------------|

Bridge: Guitar 1 (Acoustic)
|--------------------------------------------------------------------------------------------------|
|--10-/-12-10--10-/-12-10--10-/-12-10--9------------------------------14--14-14--14--14-14--14-14--|
|--------------------------------------8-------------------------------x---x--x---x---x--x---x--x--|
|---------------------------------------------------2-/-4-\-2---4--/--11--11-11--11--11-11--11-11--|
|---------------------------------------------------0----------------------------------------------|
|--------------------------------------------------------------------------------------------------|
                                                                                                   |
Bridge: Guitar 2 (Clean electric)                                                                  |
|---------------------------------------------------0----------------------------------------------|
|--12---------10-----------8-----------7------------5----------------------------------------------|
|--12----------9-----------7-----------7------------6----------------------------------------------|
|--10----------9-----------5------------------------7----------------------------------------------|
|--------------------------------------------------------------------------------------------------|
|--------------------------------------------------------------------------------------------------|

Bridge: Guitar 1 (Acoustic)
|--------------------------------------------------------------------------------------------------|
|--10-/-12-10--10-/-12-10--10-/-12-10--9------------------------------14--14-14--14--14-14--14-14--|
|--------------------------------------8-------------------------------x---x--x---x---x--x---x--x--|
|---------------------------------------------------2-/-4-\-2---4--/--11--11-11--11--11-11--11-11--|
|---------------------------------------------------0----------------------------------------------|
|--------------------------------------------------------------------------------------------------|
                                                                                                   |
Bridge: Guitar 2 (Clean electric)                                                                  |
|---------------------------------------------------0----------------------------------------------|
|--12---------10-----------8-----------7------------5----------------------------------------------|
|--12----------9-----------7-----------7------------6----------------------------------------------|
|--10----------9-----------5------------------------7----------------------------------------------|
|--------------------------------------------------------------------------------------------------|
|--------------------------------------------------------------------------------------------------|

Chorus: Guitar 1 (Acoustic) *Strum*
|--------------------------------------------------------------------------------------------------|
|--------------------------------------------------------------------------------------------------|
|--9----------------------------------------------9------------------------------------------------|
|--7----------------------------------------------10-----------------------------------------------|
|--7----------------------------------------------8------------------------------------------------|
|--7-----------------------------------------------------------------------------------------------|
                                                                                                   |
Chorus: Guitar 2 (Distorted)                                                                       |
|--------------------------------------------------------------------------------------------------|
|--------------------------------------------------------------------------------------------------|
|-----------------------------------------------------------2-----------2-----------2-----------2--|
|--2p0--------2p0--------2p0--------2p0-----------2-p-0--2----2-p-0--2----2-p-0--2----2-p-0--2-----|
|------3/5-0------3/5-0------3/5-0------3/5-0------------------------------------------------------|
|--------------------------------------------------------------------------------------------------|
                                                                                                   |
Chorus: Guitar 3 (Distorted) *studio fill in guitar*                                               |
|--------------------------------------------------------------------------------------------------|
|-------------------------------------------------5------------------------------------------------|
|--9----------------------------------------------5------------------------------------------------|
|--7----------------------------------------------3------------------------------------------------|
|--7----------------------------------------------3------------------------------------------------|
|--7----------------------------------------------3------------------------------------------------|
                                                                                                   |
Chorus: Guitar 4 (Clean with slide) *studio fill in guitar*                                        |
|-------------------------------------5-----------3------------------------------------------------|
|--------------------------------------------------------------------------------------------------|
|--------------------------------------------------------------------------------------------------|
|--------------------------------------------------------------------------------------------------|
|--------------------------------------------------------------------------------------------------|
|--------------------------------------------------------------------------------------------------|

Chorus: Guitar 1 (Acoustic) *Strum*
|--------------------------------------------------------------------------------------------------|
|--------------------------------------------------------------------------------------------------|
|--9----------------------------------------------9------------------------------------------------|
|--7----------------------------------------------10-----------------------------------------------|
|--7----------------------------------------------8------------------------------------------------|
|--7-----------------------------------------------------------------------------------------------|
                                                                                                   |
Chorus: Guitar 2 (Distorted)                                                                       |
|--------------------------------------------------------------------------------------------------|
|--------------------------------------------------------------------------------------------------|
|-----------------------------------------------------------2-----------2-----------2-----------2--|
|--2p0--------2p0--------2p0--------2p0-----------2-p-0--2----2-p-0--2----2-p-0--2----2-p-0--2-----|
|------3/5-0------3/5-0------3/5-0------3/5-0------------------------------------------------------|
|--------------------------------------------------------------------------------------------------|
                                                                                                   |
Chorus: Guitar 3 (Distorted) *studio fill in guitar*                                               |
|--------------------------------------------------------------------------------------------------|
|-------------------------------------------------5------------------------------------------------|
|--9----------------------------------------------5------------------------------------------------|
|--7----------------------------------------------3------------------------------------------------|
|--7----------------------------------------------3------------------------------------------------|
|--7----------------------------------------------3------------------------------------------------|
                                                                                                   |
Chorus: Guitar 4 (Clean with slide) *studio fill in guitar*                                        |
|-------------------------------------5-----------3------------------------------------------------|
|--------------------------------------------------------------------------------------------------|
|--------------------------------------------------------------------------------------------------|
|--------------------------------------------------------------------------------------------------|
|--------------------------------------------------------------------------------------------------|
|--------------------------------------------------------------------------------------------------|

Chorus: Guitar 1 (Acoustic) *Strum*
|--------------------------------------------------------------------------------------------------|
|--------------------------------------------------------------------------------------------------|
|--9----------------------------------------------9------------------------------------------------|
|--7----------------------------------------------10-----------------------------------------------|
|--7----------------------------------------------8------------------------------------------------|
|--7-----------------------------------------------------------------------------------------------|
                                                                                                   |
Chorus: Guitar 2 (Distorted)                                                                       |
|--------------------------------------------------------------------------------------------------|
|--------------------------------------------------------------------------------------------------|
|-----------------------------------------------------------2-----------2-----------2-----------2--|
|--2p0--------2p0--------2p0--------2p0-----------2-p-0--2----2-p-0--2----2-p-0--2----2-p-0--2-----|
|------3/5-0------3/5-0------3/5-0------3/5-0------------------------------------------------------|
|--------------------------------------------------------------------------------------------------|
                                                                                                   |
Chorus: Guitar 3 (Distorted) *studio fill in guitar*                                               |
|--------------------------------------------------------------------------------------------------|
|-------------------------------------------------5------------------------------------------------|
|--9----------------------------------------------5------------------------------------------------|
|--7----------------------------------------------3------------------------------------------------|
|--7----------------------------------------------3------------------------------------------------|
|--7----------------------------------------------3------------------------------------------------|
                                                                                                   |
Chorus: Guitar 4 (Clean with slide) *studio fill in guitar*                                        |
|-------------------------------------5-----------3------------------------------------------------|
|--------------------------------------------------------------------------------------------------|
|--------------------------------------------------------------------------------------------------|
|--------------------------------------------------------------------------------------------------|
|--------------------------------------------------------------------------------------------------|
|--------------------------------------------------------------------------------------------------|

Chorus: Guitar 1 (Acoustic) *Strum*
|--------------------------------------------------------------------------------------------------|
|--------------------------------------------------------------------------------------------------|
|--9----------------------------------------------9------------------------------------------------|
|--7----------------------------------------------10-----------------------------------------------|
|--7----------------------------------------------8------------------------------------------------|
|--7-----------------------------------------------------------------------------------------------|
                                                                                                   |
Chorus: Guitar 2 (Distorted)                                                                       |
|--------------------------------------------------------------------------------------------------|
|--------------------------------------------------------------------------------------------------|
|-----------------------------------------------------------2-----------2-----------2-----------2--|
|--2p0--------2p0--------2p0--------2p0-----------2-p-0--2----2-p-0--2----2-p-0--2----2-p-0--2-----|
|------3/5-0------3/5-0------3/5-0------3/5-0------------------------------------------------------|
|--------------------------------------------------------------------------------------------------|
                                                                                                   |
Chorus: Guitar 3 (Distorted) *studio fill in guitar*                                               |
|--------------------------------------------------------------------------------------------------|
|-------------------------------------------------5------------------------------------------------|
|--9----------------------------------------------5------------------------------------------------|
|--7----------------------------------------------3------------------------------------------------|
|--7----------------------------------------------3------------------------------------------------|
|--7----------------------------------------------3------------------------------------------------|
                                                                                                   |
Chorus: Guitar 4 (Clean with slide) *studio fill in guitar*                                        |
|-------------------------------------5-----------3------------------------------------------------|
|--------------------------------------------------------------------------------------------------|
|--------------------------------------------------------------------------------------------------|
|--------------------------------------------------------------------------------------------------|
|--------------------------------------------------------------------------------------------------|
|--------------------------------------------------------------------------------------------------|

Outro: Guitar 1 (Acoustic)
|--------------------------------------------------------------------------------------------------|
|-----------------/--14----------------------------------------------------------------------------|
|---------------------x----------------------------------------------------------------------------|
|--2-/-4-\-2---4--/--11----------------------------------------------------------------------------|
|--0-----------------------------------------------------------------------------------------------|
|--------------------------------------------------------------------------------------------------|
                                                                                                   |
Outro: Guitar 2 (Distorted)                                                                        |
|--------------------------------------------------------------------------------------------------|
|--------------------------------------------------------------------------------------------------|
|--------------------------2-----------------------------------------------------------------------|
|-------------------------(2)----------------------------------------------------------------------|
|--------------------------------------------------------------------------------------------------|
|--------------------------------------------------------------------------------------------------|

Finished!



============
============

10 Years
Focus
Tuning Db Ab Db Gb Bb Eb
Tabbed by U B the band

Legend
/-slide up                                p-pull off                                ()-optional
\-slide down                              h-hammer on

In this song there are a few fill in guitars, just listen and you’ll hear them. Hope you like the tab.

Intro: Guitar 1 (Acoustic)
|--------------------------------------------------------------------------------------------------|
|--------------------------------------------------------------------------------------------------|
|--7-/-9-\-7---9--/--16--16-16--16--16-16--16-16----7-/-9-\-7---9--/--16--16-16--16--16-16--16-16--|
|--x---x---x---x------x---x--x---x---x--x---x--x----x---x---x---x------x---x--x---x---x--x---x--x--|
|--5-/-7-\-5---7--/--14--14-14--14--14-14--14-14----5-/-7-\-5---7--/--14--14-14--14--14-14--14-14--|
|--------------------------------------------------------------------------------------------------|

Verse 1: Guitar 1 (Acoustic)
|--------------------------------------------------------------------------------------------------|
|--------------------------------------------------------------------------------------------------|
|--7-/-9-\-7---9--/--16--16-16--16--16-16--16-16----7-/-9-\-7---9--/--16--16-16--16--16-16--16-16--|
|--x---x---x---x------x---x--x---x---x--x---x--x----x---x---x---x------x---x--x---x---x--x---x--x--|
|--5-/-7-\-5---7--/--14--14-14--14--14-14--14-14----5-/-7-\-5---7--/--14--14-14--14--14-14--14-14--|
|--------------------------------------------------------------------------------------------------|

Verse 1: Guitar 1 (Acoustic)
|--------------------------------------------------------------------------------------------------|
|--------------------------------------------------------------------------------------------------|
|--7-/-9-\-7------/--16--14-14--16--14-14--16-14----7-/-9-\-7------/--16--14-14--16--14-14--16-14--|
|--x---x---x----------x---x--x---x---x--x---x--x----x---x---x----------x---x--x---x---x--x---x--x--|
|--5-/-7-\-5------/--14--14-14--14--14-14--14-14----5-/-7-\-5------/--14--14-14--14--14-14--14-14--|
|--------------------------------------------------------------------------------------------------|

Pre-Chorus: Guitar 1 (Acoustic)
|--------------------------------------------------------------------------------------------------|
|--10----------8-----------------------------------------------------------------------------------|
|--10----------7----------10-----------9------------7-/-9-\-7---9--/--16--16-16--16--16-16--16-16--|
|---8----------7----------10----------10------------x---x---x---x------x---x--x---x---x--x---x--x--|
|---------------------------------------------------5-/-7-\-5---7--/--14--14-14--14--14-14--14-14--|
|--------------------------------------------------------------------------------------------------|
                                                                                                   |
Pre-Chorus: Guitar 2 (Clean electric)                                                              |
|--------------------------------------------------------------------------------------------------|
|--10----------8-----------------------------------------------------------------------------------|
|--10----------7----------10-----------9-----------------------------------------------------------|
|---8----------7----------10----------10-----------------------------------------------------------|
|--------------------------------------------------------------------------------------------------|
|--------------------------------------------------------------------------------------------------|

Pre-Chorus: Guitar 1 (Acoustic)
|--------------------------------------------------------------------------------------------------|
|------------------8-------------------------------------------------------------------------------|
|--10-/-12-\-10----10----------9--------------------7-/-9-\-7------/--16--16-16--16--16-16--16-16--|
|--10-/-12-\-10----10------9---9--------------------x---x---x----------x---x--x---x---x--x---x--x--|
|--8--/-10-\-8-----8-------7---7--------------------5-/-7-\-5------/--14--14-14--14--14-14--14-14--|
|--------------------------------------------------------------------------------------------------|
                                                                                                   |
Pre-Chorus: Guitar 2 (Clean electric)                                                              |
|--------------------------------------------------------------------------------------------------|
|------------------8-------------------------------------------------------------------------------|
|--10-/-12-\-10----10----------9-------------------------------------------------------------------|
|--10-/-12-\-10----10------9---9-------------------------------------------------------------------|
|--8--/-10-\-8-----8-------7---7-------------------------------------------------------------------|
|--------------------------------------------------------------------------------------------------|

Chorus: Guitar 1 (Acoustic) *Strum*
|--------------------------------------------------------------------------------------------------|
|--------------------------------------------------------------------------------------------------|
|--7----------------------------------------------7------------------------------------------------|
|--5----------------------------------------------8------------------------------------------------|
|--5----------------------------------------------6------------------------------------------------|
|--5-----------------------------------------------------------------------------------------------|
                                                                                                   |
Chorus: Guitar 2 (Distorted)                                                                       |
|--------------------------------------------------------------------------------------------------|
|--------------------------------------------------------------------------------------------------|
|-------------------------------------------------0----------------------------0--------------0----|
|--0------------------------------------------------------------------------0--------------0-------|
|---------------------5p3--1h3-----5p3--1h3--------------------------3-p-1----------3-p-1----------|
|-------------------------------5------------5-----------------------------------------------------|
                                                                                                   |
Chorus: Guitar 3 (Distorted) *studio fill in guitar*                                               |
|--------------------------------------------------------------------------------------------------|
|-------------------------------------------------3------------------------------------------------|
|--7----------------------------------------------0------------------------------------------------|
|--5----------------------------------------------1------------------------------------------------|
|--5----------------------------------------------1------------------------------------------------|
|--5----------------------------------------------1------------------------------------------------|
                                                                                                   |
Chorus: Guitar 4 (Clean with slide) *studio fill in guitar*                                        |
|--------------------------------------------------------------------------------------------------|
|--------------------------------------------------------------------------------------------------|
|-------------------------------------12----------10-----------------------------------------------|
|--------------------------------------------------------------------------------------------------|
|--------------------------------------------------------------------------------------------------|
|--------------------------------------------------------------------------------------------------|

Chorus: Guitar 1 (Acoustic) *Strum*
|--------------------------------------------------------------------------------------------------|
|--------------------------------------------------------------------------------------------------|
|--7----------------------------------------------7------------------------------------------------|
|--5----------------------------------------------8------------------------------------------------|
|--5----------------------------------------------6------------------------------------------------|
|--5-----------------------------------------------------------------------------------------------|
                                                                                                   |
Chorus: Guitar 2 (Distorted)                                                                       |
|--------------------------------------------------------------------------------------------------|
|--------------------------------------------------------------------------------------------------|
|-------------------------------------------------0----------------------------0--------------0----|
|--0------------------------------------------------------------------------0--------------0-------|
|---------------------5p3--1h3-----5p3--1h3--------------------------3-p-1----------3-p-1----------|
|-------------------------------5------------5-----------------------------------------------------|
                                                                                                   |
Chorus: Guitar 3 (Distorted) *studio fill in guitar*                                               |
|--------------------------------------------------------------------------------------------------|
|-------------------------------------------------3------------------------------------------------|
|--7----------------------------------------------0------------------------------------------------|
|--5----------------------------------------------1------------------------------------------------|
|--5----------------------------------------------1------------------------------------------------|
|--5----------------------------------------------1------------------------------------------------|
                                                                                                   |
Chorus: Guitar 4 (Clean with slide) *studio fill in guitar*                                        |
|--------------------------------------------------------------------------------------------------|
|--------------------------------------------------------------------------------------------------|
|-------------------------------------12----------10-----------------------------------------------|
|--------------------------------------------------------------------------------------------------|
|--------------------------------------------------------------------------------------------------|
|--------------------------------------------------------------------------------------------------|

Post Chorus: Guitar 1 (Acoustic)
|--------------------------------------------------------------------------------------------------|
|--------------------------------------------------------------------------------------------------|
|--7-/-9-\-7---9--/--16--16-16--16--16-16--16-16----7-/-9-\-7---9--/--16--16-16--16--16-16--16-16--|
|--x---x---x---x------x---x--x---x---x--x---x--x----x---x---x---x------x---x--x---x---x--x---x--x--|
|--5-/-7-\-5---7--/--14--14-14--14--14-14--14-14----5-/-7-\-5---7--/--14--14-14--14--14-14--14-14--|
|--------------------------------------------------------------------------------------------------|
                                                                                                   |
Post Chorus: Guitar 3 (Distorted)                                                                  |
|--------------------------------------------------------------------------------------------------|
|--------------------------------------------------------------------------------------------------|
|--7-----------------------------------------------------------------------------------------------|
|--5-----------------------------------------------------------------------------------------------|
|--5-----------------------------------------------------------------------------------------------|
|--5-----------------------------------------------------------------------------------------------|

Verse 2: Guitar 1 (Acoustic)
|--------------------------------------------------------------------------------------------------|
|--------------------------------------------------------------------------------------------------|
|--7-/-9-\-7---9--/--16--16-16--16--16-16--16-16----7-/-9-\-7---9--/--16--16-16--16--16-16--16-16--|
|--x---x---x---x------x---x--x---x---x--x---x--x----x---x---x---x------x---x--x---x---x--x---x--x--|
|--5-/-7-\-5---7--/--14--14-14--14--14-14--14-14----5-/-7-\-5---7--/--14--14-14--14--14-14--14-14--|
|--------------------------------------------------------------------------------------------------|

Verse 2: Guitar 1 (Acoustic)
|--------------------------------------------------------------------------------------------------|
|--------------------------------------------------------------------------------------------------|
|--7-/-9-\-7------/--16--14-14--16--14-14--16-14----7-/-9-\-7------/--16--14-14--16--14-14--16-14--|
|--x---x---x----------x---x--x---x---x--x---x--x----x---x---x----------x---x--x---x---x--x---x--x--|
|--5-/-7-\-5------/--14--14-14--14--14-14--14-14----5-/-7-\-5------/--14--14-14--14--14-14--14-14--|
|--------------------------------------------------------------------------------------------------|

Pre-Chorus: Guitar 1 (Acoustic)
|--------------------------------------------------------------------------------------------------|
|--10----------8-----------------------------------------------------------------------------------|
|--10----------7----------10-----------9------------7-/-9-\-7---9--/--16--16-16--16--16-16--16-16--|
|---8----------7----------10----------10------------x---x---x---x------x---x--x---x---x--x---x--x--|
|---------------------------------------------------5-/-7-\-5---7--/--14--14-14--14--14-14--14-14--|
|--------------------------------------------------------------------------------------------------|
                                                                                                   |
Pre-Chorus: Guitar 2 (Clean electric)                                                              |
|--------------------------------------------------------------------------------------------------|
|--10----------8-----------------------------------------------------------------------------------|
|--10----------7----------10-----------9-----------------------------------------------------------|
|---8----------7----------10----------10-----------------------------------------------------------|
|--------------------------------------------------------------------------------------------------|
|--------------------------------------------------------------------------------------------------|

Pre-Chorus: Guitar 1 (Acoustic)
|--------------------------------------------------------------------------------------------------|
|------------------8-------------------------------------------------------------------------------|
|--10-/-12-\-10----10----------9--------------------7-/-9-\-7------/--16--16-16--16--16-16--16-16--|
|--10-/-12-\-10----10------9---9--------------------x---x---x----------x---x--x---x---x--x---x--x--|
|--8--/-10-\-8-----8-------7---7--------------------5-/-7-\-5------/--14--14-14--14--14-14--14-14--|
|--------------------------------------------------------------------------------------------------|
                                                                                                   |
Pre-Chorus: Guitar 2 (Clean electric)                                                              |
|--------------------------------------------------------------------------------------------------|
|------------------8-------------------------------------------------------------------------------|
|--10-/-12-\-10----10----------9-------------------------------------------------------------------|
|--10-/-12-\-10----10------9---9-------------------------------------------------------------------|
|--8--/-10-\-8-----8-------7---7-------------------------------------------------------------------|
|--------------------------------------------------------------------------------------------------|

Chorus: Guitar 1 (Acoustic) *Strum*
|--------------------------------------------------------------------------------------------------|
|--------------------------------------------------------------------------------------------------|
|--7----------------------------------------------7------------------------------------------------|
|--5----------------------------------------------8------------------------------------------------|
|--5----------------------------------------------6------------------------------------------------|
|--5-----------------------------------------------------------------------------------------------|
                                                                                                   |
Chorus: Guitar 2 (Distorted)                                                                       |
|--------------------------------------------------------------------------------------------------|
|--------------------------------------------------------------------------------------------------|
|-------------------------------------------------0----------------------------0--------------0----|
|--0------------------------------------------------------------------------0--------------0-------|
|---------------------5p3--1h3-----5p3--1h3--------------------------3-p-1----------3-p-1----------|
|-------------------------------5------------5-----------------------------------------------------|
                                                                                                   |
Chorus: Guitar 3 (Distorted) *studio fill in guitar*                                               |
|--------------------------------------------------------------------------------------------------|
|-------------------------------------------------3------------------------------------------------|
|--7----------------------------------------------0------------------------------------------------|
|--5----------------------------------------------1------------------------------------------------|
|--5----------------------------------------------1------------------------------------------------|
|--5----------------------------------------------1------------------------------------------------|
                                                                                                   |
Chorus: Guitar 4 (Clean with slide) *studio fill in guitar*                                        |
|--------------------------------------------------------------------------------------------------|
|--------------------------------------------------------------------------------------------------|
|-------------------------------------12----------10-----------------------------------------------|
|--------------------------------------------------------------------------------------------------|
|--------------------------------------------------------------------------------------------------|
|--------------------------------------------------------------------------------------------------|

Chorus: Guitar 1 (Acoustic) *Strum*
|--------------------------------------------------------------------------------------------------|
|--------------------------------------------------------------------------------------------------|
|--7----------------------------------------------7------------------------------------------------|
|--5----------------------------------------------8------------------------------------------------|
|--5----------------------------------------------6------------------------------------------------|
|--5-----------------------------------------------------------------------------------------------|
                                                                                                   |
Chorus: Guitar 2 (Distorted)                                                                       |
|--------------------------------------------------------------------------------------------------|
|--------------------------------------------------------------------------------------------------|
|-------------------------------------------------0----------------------------0--------------0----|
|--0------------------------------------------------------------------------0--------------0-------|
|---------------------5p3--1h3-----5p3--1h3--------------------------3-p-1----------3-p-1----------|
|-------------------------------5------------5-----------------------------------------------------|
                                                                                                   |
Chorus: Guitar 3 (Distorted) *studio fill in guitar*                                               |
|--------------------------------------------------------------------------------------------------|
|-------------------------------------------------3------------------------------------------------|
|--7----------------------------------------------0------------------------------------------------|
|--5----------------------------------------------1------------------------------------------------|
|--5----------------------------------------------1------------------------------------------------|
|--5----------------------------------------------1------------------------------------------------|
                                                                                                   |
Chorus: Guitar 4 (Clean with slide) *studio fill in guitar*                                        |
|--------------------------------------------------------------------------------------------------|
|--------------------------------------------------------------------------------------------------|
|-------------------------------------12----------10-----------------------------------------------|
|--------------------------------------------------------------------------------------------------|
|--------------------------------------------------------------------------------------------------|
|--------------------------------------------------------------------------------------------------|

Post Chorus: Guitar 1 (Acoustic)
|--------------------------------------------------------------------------------------------------|
|--------------------------------------------------------------------------------------------------|
|--7-/-9-\-7---9--/--16--16-16--16--16-16--16-16----7-/-9-\-7---9--/--16--16-16--16--16-16--16-16--|
|--x---x---x---x------x---x--x---x---x--x---x--x----x---x---x---x------x---x--x---x---x--x---x--x--|
|--5-/-7-\-5---7--/--14--14-14--14--14-14--14-14----5-/-7-\-5---7--/--14--14-14--14--14-14--14-14--|
|--------------------------------------------------------------------------------------------------|
                                                                                                   |
Post Chorus: Guitar 3 (Distorted)                                                                  |
|--------------------------------------------------------------------------------------------------|
|--------------------------------------------------------------------------------------------------|
|--7-----------------------------------------------------------------------------------------------|
|--5-----------------------------------------------------------------------------------------------|
|--5-----------------------------------------------------------------------------------------------|
|--5-----------------------------------------------------------------------------------------------|

Bridge: Guitar 1 (Acoustic)
|--------------------------------------------------------------------------------------------------|
|-----10----8-----10----8----10----8---8-----------------------------------------------------------|
|--10----------10---------10-----------9------------7-/-9-\-7---9--/--16--16-16--16--16-16--16-16--|
|---------------------------------------------------x---x---x---x------x---x--x---x---x--x---x--x--|
|---------------------------------------------------5-/-7-\-5---7--/--14--14-14--14--14-14--14-14--|
|--------------------------------------------------------------------------------------------------|
                                                                                                   |
Bridge: Guitar 2 (Clean electric)                                                                  |
|--------------------------------------------------------------------------------------------------|
|--10----------8------------------------------------3----------------------------------------------|
|--10----------7----------10-----------9------------4----------------------------------------------|
|---8----------7----------10----------10------------5----------------------------------------------|
|--------------------------------------------------(5)---------------------------------------------|
|--------------------------------------------------------------------------------------------------|

Bridge: Guitar 1 (Acoustic)
|--------------------------------------------------------------------------------------------------|
|-----10----8-----10----8----10----8---8-----------------------------------------------------------|
|--10----------10---------10-----------9------------7-/-9-\-7---9--/--16--16-16--16--16-16--16-16--|
|---------------------------------------------------x---x---x---x------x---x--x---x---x--x---x--x--|
|---------------------------------------------------5-/-7-\-5---7--/--14--14-14--14--14-14--14-14--|
|--------------------------------------------------------------------------------------------------|
                                                                                                   |
Bridge: Guitar 2 (Clean electric)                                                                  |
|--------------------------------------------------------------------------------------------------|
|--10----------8------------------------------------3----------------------------------------------|
|--10----------7----------10-----------9------------4----------------------------------------------|
|---8----------7----------10----------10------------5----------------------------------------------|
|--------------------------------------------------(5)---------------------------------------------|
|--------------------------------------------------------------------------------------------------|

Chorus: Guitar 1 (Acoustic) *Strum*
|--------------------------------------------------------------------------------------------------|
|--------------------------------------------------------------------------------------------------|
|--7----------------------------------------------7------------------------------------------------|
|--5----------------------------------------------8------------------------------------------------|
|--5----------------------------------------------6------------------------------------------------|
|--5-----------------------------------------------------------------------------------------------|
                                                                                                   |
Chorus: Guitar 2 (Distorted)                                                                       |
|--------------------------------------------------------------------------------------------------|
|--------------------------------------------------------------------------------------------------|
|-----------------------------------------------------------0-----------0-----------0-----------0--|
|--------------------------------------------------------0-----------0-----------0-----------0-----|
|--5p3-1h3----5h3-1h3----5p3-1h3----5p3-1h3-------3-p-1-------3-p-1-------3-p-1-------3-p-1--------|
|----------5----------5----------5----------5------------------------------------------------------|
                                                                                                   |
Chorus: Guitar 3 (Distorted) *studio fill in guitar*                                               |
|--------------------------------------------------------------------------------------------------|
|-------------------------------------------------3------------------------------------------------|
|--7----------------------------------------------0------------------------------------------------|
|--5----------------------------------------------1------------------------------------------------|
|--5----------------------------------------------1------------------------------------------------|
|--5----------------------------------------------1------------------------------------------------|
                                                                                                   |
Chorus: Guitar 4 (Clean with slide) *studio fill in guitar*                                        |
|--------------------------------------------------------------------------------------------------|
|--------------------------------------------------------------------------------------------------|
|-------------------------------------12----------10-----------------------------------------------|
|--------------------------------------------------------------------------------------------------|
|--------------------------------------------------------------------------------------------------|
|--------------------------------------------------------------------------------------------------|

Chorus: Guitar 1 (Acoustic) *Strum*
|--------------------------------------------------------------------------------------------------|
|--------------------------------------------------------------------------------------------------|
|--7----------------------------------------------7------------------------------------------------|
|--5----------------------------------------------8------------------------------------------------|
|--5----------------------------------------------6------------------------------------------------|
|--5-----------------------------------------------------------------------------------------------|
                                                                                                   |
Chorus: Guitar 2 (Distorted)                                                                       |
|--------------------------------------------------------------------------------------------------|
|--------------------------------------------------------------------------------------------------|
|-----------------------------------------------------------0-----------0-----------0-----------0--|
|--------------------------------------------------------0-----------0-----------0-----------0-----|
|--5p3-1h3----5h3-1h3----5p3-1h3----5p3-1h3-------3-p-1-------3-p-1-------3-p-1-------3-p-1--------|
|----------5----------5----------5----------5------------------------------------------------------|
                                                                                                   |
Chorus: Guitar 3 (Distorted) *studio fill in guitar*                                               |
|--------------------------------------------------------------------------------------------------|
|-------------------------------------------------3------------------------------------------------|
|--7----------------------------------------------0------------------------------------------------|
|--5----------------------------------------------1------------------------------------------------|
|--5----------------------------------------------1------------------------------------------------|
|--5----------------------------------------------1------------------------------------------------|
                                                                                                   |
Chorus: Guitar 4 (Clean with slide) *studio fill in guitar*                                        |
|--------------------------------------------------------------------------------------------------|
|--------------------------------------------------------------------------------------------------|
|-------------------------------------12----------10-----------------------------------------------|
|--------------------------------------------------------------------------------------------------|
|--------------------------------------------------------------------------------------------------|
|--------------------------------------------------------------------------------------------------|

Chorus: Guitar 1 (Acoustic) *Strum*
|--------------------------------------------------------------------------------------------------|
|--------------------------------------------------------------------------------------------------|
|--7----------------------------------------------7------------------------------------------------|
|--5----------------------------------------------8------------------------------------------------|
|--5----------------------------------------------6------------------------------------------------|
|--5-----------------------------------------------------------------------------------------------|
                                                                                                   |
Chorus: Guitar 2 (Distorted)                                                                       |
|--------------------------------------------------------------------------------------------------|
|--------------------------------------------------------------------------------------------------|
|-----------------------------------------------------------0-----------0-----------0-----------0--|
|--------------------------------------------------------0-----------0-----------0-----------0-----|
|--5p3-1h3----5h3-1h3----5p3-1h3----5p3-1h3-------3-p-1-------3-p-1-------3-p-1-------3-p-1--------|
|----------5----------5----------5----------5------------------------------------------------------|
                                                                                                   |
Chorus: Guitar 3 (Distorted) *studio fill in guitar*                                               |
|--------------------------------------------------------------------------------------------------|
|-------------------------------------------------3------------------------------------------------|
|--7----------------------------------------------0------------------------------------------------|
|--5----------------------------------------------1------------------------------------------------|
|--5----------------------------------------------1------------------------------------------------|
|--5----------------------------------------------1------------------------------------------------|
                                                                                                   |
Chorus: Guitar 4 (Clean with slide) *studio fill in guitar*                                        |
|--------------------------------------------------------------------------------------------------|
|--------------------------------------------------------------------------------------------------|
|-------------------------------------12----------10-----------------------------------------------|
|--------------------------------------------------------------------------------------------------|
|--------------------------------------------------------------------------------------------------|
|--------------------------------------------------------------------------------------------------|

Chorus: Guitar 1 (Acoustic) *Strum*
|--------------------------------------------------------------------------------------------------|
|--------------------------------------------------------------------------------------------------|
|--7----------------------------------------------7------------------------------------------------|
|--5----------------------------------------------8------------------------------------------------|
|--5----------------------------------------------6------------------------------------------------|
|--5-----------------------------------------------------------------------------------------------|
                                                                                                   |
Chorus: Guitar 2 (Distorted)                                                                       |
|--------------------------------------------------------------------------------------------------|
|--------------------------------------------------------------------------------------------------|
|-----------------------------------------------------------0-----------0-----------0-----------0--|
|--------------------------------------------------------0-----------0-----------0-----------0-----|
|--5p3-1h3----5h3-1h3----5p3-1h3----5p3-1h3-------3-p-1-------3-p-1-------3-p-1-------3-p-1--------|
|----------5----------5----------5----------5------------------------------------------------------|
                                                                                                   |
Chorus: Guitar 3 (Distorted) *studio fill in guitar*                                               |
|--------------------------------------------------------------------------------------------------|
|-------------------------------------------------3------------------------------------------------|
|--7----------------------------------------------0------------------------------------------------|
|--5----------------------------------------------1------------------------------------------------|
|--5----------------------------------------------1------------------------------------------------|
|--5----------------------------------------------1------------------------------------------------|
                                                                                                   |
Chorus: Guitar 4 (Clean with slide) *studio fill in guitar*                                        |
|--------------------------------------------------------------------------------------------------|
|--------------------------------------------------------------------------------------------------|
|-------------------------------------12----------10-----------------------------------------------|
|--------------------------------------------------------------------------------------------------|
|--------------------------------------------------------------------------------------------------|
|--------------------------------------------------------------------------------------------------|

Outro: Guitar 1 (Acoustic)
|--------------------------------------------------------------------------------------------------|
|--------------------------------------------------------------------------------------------------|
|--7-/-9-\-7---9--/--16----------------------------------------------------------------------------|
|--x---x---x---x------x----------------------------------------------------------------------------|
|--5-/-7-\-5---7--/--14----------------------------------------------------------------------------|
|--------------------------------------------------------------------------------------------------|
                                                                                                   |
Outro: Guitar 2 (Distorted)                                                                        |
|--------------------------------------------------------------------------------------------------|
|--------------------------------------------------------------------------------------------------|
|--------------------------0-----------------------------------------------------------------------|
|--------------------------------------------------------------------------------------------------|
|--------------------------------------------------------------------------------------------------|
|--------------------------------------------------------------------------------------------------|

Finished!
comments
We did not receive enough feedback on this tab! Please rate:
print report bad tab
1 2 3 4 5
1 comment total.
0 reply
U B the band wrote on July 27 2008, 11:36 am

I learned and tabbed this song in Drop Db first because that's what I assumed it was in. A few hours after ultimate-guitar added it to the site I watched a live video of 10 Years playing this song and I saw that they were playing it in Drop B (the same tuning for "Actions & Motives" I left the Drop Db version of this song at the bottom of the Drop B version for people that don't tune down to Drop B. The Drop B version is easier to play as well.

I want to post or [tab]
guest
You may want to rate the tab now too:
select rating
Please do not post tabs as comments. Select "correction" instead!