Oops, an error
Loading. Please wait.

Infected Tab

ver1
ver1

Whole song

More versions @911Tabs.com
3,144 views 6 this week
no commentswrite comment
1 2 3 4 5
excellent!
x 2
Autoscroll
+/-
esc
set tempo
stop
Contributor
Difficulty
Tuning
intermediate
C G C F A D
WARNING: You are trying to view
                                    content from Ultimate-Guitar.com
                                    in an unauthorized application,
                                    which is prohibited.

                                    Please use an official Ultimate
                                    Guitar Tabs application for iPhone,
                                    iPad or Android to access legitimate
                                    chords, guitar, bass, and drum tabs
                                    from Ultimate-Guitar.com database.

                                    Type "ultimate guitar tabs" in Apple
                                    App Store's or Android Market's
                                    search to find the application.
----------------------------------------------------------------------------
                               Infected
                               12 Stones
----------------------------------------------------------------------------

Hey. This is my first time ever doing something by 12 Stones, and I’m glad I did. It 
really helped me with my harmonics. It’s a fun song, fun solo and interesting all around. Enjoy!

Username: dkm817 (same on X box live)
Youtube Cover: http://www.youtube.com/watch?v=xiO-6POsaQg&feature=youtu.be
Email: guitardrums@rockfan.com

Guitar 1 Rhythmic (C G C F A D)
Guitar 2 Lead     (C G C F A D)


Tab Guide...

==================================================================
(end of measures)

==================================================================
==================================================================
(end of parts)

==================================================================
==================================================================
==================================================================
(end of song)

(If there is a “continued” it is because the numbers could not
fit on 1 line.)


Intro 1

Guitar 1
D-----------------------------------------------------------------|
A-----------------------------------------------------------------|
F-----------------------------------------------------------------|
C-0---0---0---0-----------0---0---0---0-----------0---0-----------|
G-0---0---0---0-----------0---0---0---0-----------0---0-----------|
C-0---0---0---0-----------0---0---0---0-----------0---0-----------|
pm.   .   .   .           .   .   .   .           .   .

Guitar 2
D-----------------------------------------------------------------|
A-----------------------------------------------------------------|
F-----------------------------------------------------------------|
C-0---0---7---7---6*~~~~~-0---0---7---7---6*~~~~~-3---3---5*~~~~~-|
G-----------------------------------------------------------------|
C-----------------------------------------------------------------|

==================================================================

Guitar 1
D-----------------------------------------------------------------|
A-----------------------------------------------------------------|
F-----------------------------------------------------------------|
C-0---0---0---0-----------0---0---0---0-----------0---0-----------|
G-0---0---0---0-----------0---0---0---0-----------0---0-----------|
C-0---0---0---0-----------0---0---0---0-----------0---0-----------|
pm.   .   .   .           .   .   .   .           .   .

Guitar 2
D-----------------------------------------------------------------|
A-----------------------------------------------------------------|
F-----------------------------------------------------------------|
C-0---0---7---7---6*~~~~~-0---0---3---3---5---5---6---6-----------|
G---------------------------------------------------------6~~~~~~-|
C-----------------------------------------------------------------|

==================================================================

Guitar 1
D-----------------------------------------------------------------|
A-----------------------------------------------------------------|
F-----------------------------------------------------------------|
C-0---0---0---0-----------0---0---0---0-----------0---0-----------|
G-0---0---0---0-----------0---0---0---0-----------0---0-----------|
C-0---0---0---0-----------0---0---0---0-----------0---0-----------|
pm.   .   .   .           .   .   .   .           .   .

Guitar 2
D-----------------------------------------------------------------|
A-----------------------------------------------------------------|
F-----------------------------------------------------------------|
C-0---0---7---7---6*~~~~~-0---0---7---7---6*~~~~~-3---3---5*~~~~~-|
G-----------------------------------------------------------------|
C-----------------------------------------------------------------|

==================================================================

Guitar 1
D-----------------------------------------------------------------|
A-----------------------------------------------------------------|
F-5---5---5---5-------5---5---5---4---4---4---4-------4---4---4---|
C-5---5---5---5-------5---5---5---4---4---4---4-------4---4---4---|
G-3---3---3---3-------3---3---3---2---2---2---2-------2---2---2---|
C-----------------------------------------------------------------|
pm.   .   .   .       .   .   .   .   .   .   .       .   .   .

Guitar 2
D-----------------------------------------------------------------|
A-----------------------------------------------------------------|
F-----------------------------------------------------------------|
C-----------------5*------------------------------5*--------------|
G-3---3---3---3-------3---3---3---2---2---2---2-------2---2---2---|
C-----------------------------------------------------------------|

==================================================================
==================================================================


Intro 2

Guitar 1
D-----------------------------------------------------------------|
A-----------------------------------------------------------------|
F-----------------------------------------------------------------|
C-0---0---0---0-----------0---0---0---0-----------5~~~\~~~~~~~~~~-|
G-0---0---0---0-----------0---0---0---0-----------5~~~\~~~~~~~~~~-|
C-0---0---0---0-----------0---0---0---0-----------5~~~\~~~~~~~~~~-|

Guitar 2 (Harmony 1 octave higher)
D-----------------------------------------------------------------|
A-----------------------------------------------------------------|
F-----------------------------------------------------------------|
C-0---0---7---7---6*~~~~~-0---0---7---7---6*~~~~~-3---3---5*~~~~~-|
G-----------------------------------------------------------------|
C-----------------------------------------------------------------|

==================================================================

Guitar 1
D-----------------------------------------------------------------|
A-----------------------------------------------------------------|
F-----------------------------------------------------------------|
C-0---0---0---0-----------0---0---0---0---------------------------|
G-0---0---0---0-----------0---0---0---0---------------------------|
C-0---0---0---0-----------0---0---0---0---------------------------|

Guitar 2
D-----------------------------------------------------------------|
A-----------------------------------------------------------------|
F-----------------------------------------------------------------|
C-0---0---7---7---6*~~~~~-0---0---3---3---5---5---6---6-----------|
G---------------------------------------------------------6~~~~~~-|
C-----------------------------------------------------------------|

==================================================================

Guitar 1
D-----------------------------------------------------------------|
A-----------------------------------------------------------------|
F-----------------------------------------------------------------|
C-0---0---0---0-----------0---0---0---0-----------5~~~\~~~~~~~~~~-|
G-0---0---0---0-----------0---0---0---0-----------5~~~\~~~~~~~~~~-|
C-0---0---0---0-----------0---0---0---0-----------5~~~\~~~~~~~~~~-|

Guitar 2
D-----------------------------------------------------------------|
A-----------------------------------------------------------------|
F-----------------------------------------------------------------|
C-0---0---7---7---6*~~~~~-0---0---7---7---6*~~~~~-3---3---5*~~~~~-|
G-----------------------------------------------------------------|
C-----------------------------------------------------------------|

==================================================================


Guitar 1
D-----------------------------------------------------------------|
A-----------------------------------------------------------------|
F-5---5---5---5-------5---5---5---4---4---4---4-------------------|
C-5---5---5---5-------5---5---5---4---4---4---4-------------------|
G-3---3---3---3-------3---3---3---2---2---2---2-------------------|
C-----------------------------------------------------------------|

Guitar 2
D-----------------------------------------------------------------|
A-----------------------------------------------------------------|
F-----------------------------------------------------------------|
C-----------------5*----------------------------------------------|
G-3---3---3---3-------3---3---3---2---2---2---2-------------------|
C-----------------------------------------------------------------|

==================================================================
==================================================================


Verse 1

(x2)

Guitar 1
D-----------------------------------------------------------------|
A-----------------------------------------------------------------|
F-----------------------------------------------------------------|
C-3---0~~~~~~-3-0-3---0---------------3-0-3---0---3---0---3-5~~~~-|
G-3---0~~~~~~-3-0-3---0---------------3-0-3---0---3---0---3-5~~~~-|
C-3---0~~~~~~-3-0-3---0---------------3-0-3---0---3---0---3-5~~~~-|
pm            . . .                   . . .

Guitar 2
D-----------------------------------------------------------------|
A-----------------------------------------------------------------|
F-----------------------------------------------------------------|
C-3---0~~~~~~-3-0-3---0---------------3-0-3---0---3---0-----------|
G-3---0~~~~~~-3-0-3---0---------------3-0-3---0---3---0-----------|
C-3---0~~~~~~-3-0-3---0---------------3-0-3---0---3---0---5*~~~~~-|
pm            . . .                   . . .

==================================================================

Guitar 1
D-----------------------------------------------------------------|
A-----------------------------------------------------------------|
F-----------------------------------------------------------------|
C-3---0~~~~~~-3-0-3---0-------------------5-----------------------|
G-3---0~~~~~~-3-0-3---0-----------3-3-3-3---3-3-3-3-5-3-0---------|
C-3---0~~~~~~-3-0-3---0-----------------------------------3-5-3-0-|
pm            . . .

Guitar 2
D-----------------------------------------------------------------|
A-----------------------------------------------------------------|
F-------------------------------------------------5-7-5-----------|
C-3---0~~~~~~-3-0-3---0---------------------------------7-3-5-3-0-|
G-3---0~~~~~~-3-0-3---0-------------------------------------------|
C-3---0~~~~~~-3-0-3---0-------------------------------------------|
pm            . . .

==================================================================
==================================================================


Pre Chorus 1

Guitar 1
D-----------------------------------------------------------------|
A-----------------------------------------------------------------|
F-7---7---7---5---5---5---8---8---8---7---7---7---5---5---7---7---|
C-x---x---x---x---x---x---x---x---x---x---x---x---x---x---x---x---|
G-5---5---5---3---3---3---6---6---6---5---5---5---3---3---5---5---|
C-----------------------------------------------------------------|

==================================================================

Guitar 1
D-----------------------------------------------------------------|
A-----------------------------------------------------------------|
F-7---7---7---5---5---5---8---8---8-------------------------------|
C-x---x---x---x---x---x---x---x---x-------------------------------|
G-5---5---5---3---3---3---6---6---6-------------------------------|
C-----------------------------------------------------------------|

==================================================================
==================================================================


Chorus

Guitar 1
D-----------------------------------------------------------------|
A-----------------------------------------------------------------|
F-------------------------------------------------10--10--10--10--|
C-0~~~~~~-0~~~~~~-x---x-------x---0~~~~~~-0~~~~~~-x---x---x---x---|
G-0~~~~~~-0~~~~~~-x---x-------x---0~~~~~~-0~~~~~~-8---8---8---8---|
C-0~~~~~~-0~~~~~~-x---x-------x---0~~~~~~-0~~~~~~-----------------|

Guitar 2
D-----------------------------------------------------------------|
A-----------------------------------------------------------------|
F-----------------------------------------------------------------|
C-0~~~~~~-0~~~~~~-x---x-------x---0~~~~~~-0~~~~~~-----------------|
G-0~~~~~~-0~~~~~~-x---x-------x---0~~~~~~-0~~~~~~-----------------|
C-0~~~~~~-0~~~~~~-x---x-------x---0~~~~~~-0~~~~~~-----------------|

==================================================================

Guitar 1
D-----------------------------------------------------------------|
A-----------------------------------------------------------------|
F-----------------------------------------------------------------|
C-0~~~~~~-0~~~~~~-x---x-------x---0~~~~~~-0~~~~~~-5---3-----------|
G-0~~~~~~-0~~~~~~-x---x-------x---0~~~~~~-0~~~~~~---------5---3---|
C-0~~~~~~-0~~~~~~-x---x-------x---0~~~~~~-0~~~~~~-----------------|

Guitar 2
D-----------------------------------------------------------------|
A-----------------------------------------------------------------|
F-----------------------------------------------------------------|
C-0~~~~~~-0~~~~~~-x---x-------x---0~~~~~~-0~~~~~~-----------------|
G-0~~~~~~-0~~~~~~-x---x-------x---0~~~~~~-0~~~~~~-----------------|
C-0~~~~~~-0~~~~~~-x---x-------x---0~~~~~~-0~~~~~~-----------------|

==================================================================

Guitar 1
D-----------------------------------------------------------------|
A-----------------------------------------------------------------|
F-----------------------------------------------------------------|
C-3~~~~~~-3~~~~~~-3~~~~~~-3~~~~~~-3~~~~~~-3~~~~~~-3~~~~~~-3~~~~~~-|
G-3~~~~~~-3~~~~~~-3~~~~~~-3~~~~~~-3~~~~~~-3~~~~~~-3~~~~~~-3~~~~~~-|
C-3~~~~~~-3~~~~~~-3~~~~~~-3~~~~~~-3~~~~~~-3~~~~~~-3~~~~~~-3~~~~~~-|

Guitar 2
D-----------------------------------------------------------------|
A-15~~~~~-15~~~~~-15~~~~~-15~~~~~-13~~~~~-15~~~~~-18~~~~~-15~~~~~-|
F-----------------------------------------------------------------|
C-----------------------------------------------------------------|
G-----------------------------------------------------------------|
C-----------------------------------------------------------------|

==================================================================

Guitar 1
D-----------------------------------------------------------------|
A-----------------------------------------------------------------|
F-5~~~~~~-5~~~~~~-5~~~~~~-5~~~~~~-6~~~~~~-6~~~~~~-6~~~~~~-6~~~~~~-|
C-5~~~~~~-5~~~~~~-5~~~~~~-5~~~~~~-6~~~~~~-6~~~~~~-6~~~~~~-6~~~~~~-|
G-3~~~~~~-3~~~~~~-3~~~~~~-3~~~~~~-4~~~~~~-4~~~~~~-4~~~~~~-4~~~~~~-|
C-3~~~~~~-3~~~~~~-3~~~~~~-3~~~~~~-4~~~~~~-4~~~~~~-4~~~~~~-4~~~~~~-|

Guitar 2
D-----------------17~~~~~---------18~~~~~---------17~~~~~-15~~~~~-|
A-13~~~~~-13~~~~~---------13~~~~~---------14~~~~~-----------------|
F-----------------------------------------------------------------|
C-----------------------------------------------------------------|
G-----------------------------------------------------------------|
C-----------------------------------------------------------------|

==================================================================

Guitar 1
D-----------------------------------------------------------------|
A-----------------------------------------------------------------|
F-----------------------------------------------------------------|
C-0~~~~~~-0~~~~~~-x---x-------x---0~~~~~~-0~~~~~~-----------------|
G-0~~~~~~-0~~~~~~-x---x-------x---0~~~~~~-0~~~~~~-5---3-----------|
C-0~~~~~~-0~~~~~~-x---x-------x---0~~~~~~-0~~~~~~---------5---3---|

Guitar 2
D-----------------------------------------------------------------|
A-----------------------------------------------------------------|
F-----------------------------------------------------------------|
C-0~~~~~~-0~~~~~~-x---x-------x---0~~~~~~-0~~~~~~-----------------|
G-0~~~~~~-0~~~~~~-x---x-------x---0~~~~~~-0~~~~~~-----------------|
C-0~~~~~~-0~~~~~~-x---x-------x---0~~~~~~-0~~~~~~-----------------|

==================================================================

Guitar 1
D-----------------------------------------------------------------|
A-----------------------------------------------------------------|
F-----------------------------------------------------------------|
C-0~~~~~~-0~~~~~~-x---x-------x---0~~~~~~-0~~~~~~-----------------|
G-0~~~~~~-0~~~~~~-x---x-------x---0~~~~~~-0~~~~~~-5---3-----------|
C-0~~~~~~-0~~~~~~-x---x-------x---0~~~~~~-0~~~~~~---------5---3---|

Guitar 2
D-----------------------------------------------------------------|
A-----------------------------------------------------------------|
F-----------------------------------------------------------------|
C-0~~~~~~-0~~~~~~-x---x-------x---0~~~~~~-0~~~~~~-----------------|
G-0~~~~~~-0~~~~~~-x---x-------x---0~~~~~~-0~~~~~~-----------------|
C-0~~~~~~-0~~~~~~-x---x-------x---0~~~~~~-0~~~~~~-----------------|

==================================================================

Guitar 1
D-----------------------------------------------------------------|
A-----------------------------------------------------------------|
F-----------------------------------------------------------------|
C-3~~~~~~-3~~~~~~-3~~~~~~-3~~~~~~-3~~~~~~-3~~~~~~-3~~~~~~-3~~~~~~-|
G-3~~~~~~-3~~~~~~-3~~~~~~-3~~~~~~-3~~~~~~-3~~~~~~-3~~~~~~-3~~~~~~-|
C-3~~~~~~-3~~~~~~-3~~~~~~-3~~~~~~-3~~~~~~-3~~~~~~-3~~~~~~-3~~~~~~-|

Guitar 2
D-----------------------------------------------------------------|
A-15~~~~~-15~~~~~-15~~~~~-15~~~~~-13~~~~~-15~~~~~-18~~~~~-15~~~~~-|
F-----------------------------------------------------------------|
C-----------------------------------------------------------------|
G-----------------------------------------------------------------|
C-----------------------------------------------------------------|

==================================================================

Guitar 1
D-----------------------------------------------------------------|
A-----------------------------------------------------------------|
F-5~~~~~~-5~~~~~~-5~~~~~~-5~~~~~~-6~~~~~~-6~~~~~~-6~~~~~~-6~~~~~~-|
C-5~~~~~~-5~~~~~~-5~~~~~~-5~~~~~~-6~~~~~~-6~~~~~~-6~~~~~~-6~~~~~~-|
G-3~~~~~~-3~~~~~~-3~~~~~~-3~~~~~~-4~~~~~~-4~~~~~~-4~~~~~~-4~~~~~~-|
C-3~~~~~~-3~~~~~~-3~~~~~~-3~~~~~~-4~~~~~~-4~~~~~~-4~~~~~~-4~~~~~~-|

Guitar 2
D-----------------17~~~~~---------18~~~~~---------17~~~~~-15~~~~~-|
A-13~~~~~-13~~~~~---------13~~~~~---------14~~~~~-----------------|
F-----------------------------------------------------------------|
C-----------------------------------------------------------------|
G-----------------------------------------------------------------|
C-----------------------------------------------------------------|

==================================================================
==================================================================


Bridge 1

Guitar 1
D-----------------------------------------------------------------|
A-----------------------------------------------------------------|
F-----------------------------------------------------------------|
C-0---0---0---0-----------0---0---0---0-----------5~~~\~~~~~~~~~~-|
G-0---0---0---0-----------0---0---0---0-----------5~~~\~~~~~~~~~~-|
C-0---0---0---0-----------0---0---0---0-----------5~~~\~~~~~~~~~~-|

Guitar 2
D-----------------------------------------------------------------|
A-----------------------------------------------------------------|
F-----------------------------------------------------------------|
C-0---0---7---7---6*~~~~~-0---0---7---7---6*~~~~~-3---3---5*~~~~~-|
G-----------------------------------------------------------------|
C-----------------------------------------------------------------|

==================================================================

Guitar 1
D-----------------------------------------------------------------|
A-----------------------------------------------------------------|
F-----------------------------------------------------------------|
C-0---0---0---0-----------0---0---0---0---------------------------|
G-0---0---0---0-----------0---0---0---0---------------------------|
C-0---0---0---0-----------0---0---0---0---------------------------|

Guitar 2
D-----------------------------------------------------------------|
A-----------------------------------------------------------------|
F-----------------------------------------------------------------|
C-0---0---7---7---6*~~~~~-0---0---3---3---5---5---6---6-----------|
G---------------------------------------------------------6~~~~~~-|
C-----------------------------------------------------------------|

==================================================================

Guitar 1
D-----------------------------------------------------------------|
A-----------------------------------------------------------------|
F-----------------------------------------------------------------|
C-0---0---0---0-----------0---0---0---0-----------5~~~\~~~~~~~~~~-|
G-0---0---0---0-----------0---0---0---0-----------5~~~\~~~~~~~~~~-|
C-0---0---0---0-----------0---0---0---0-----------5~~~\~~~~~~~~~~-|

Guitar 2
D-----------------------------------------------------------------|
A-----------------------------------------------------------------|
F-----------------------------------------------------------------|
C-0---0---7---7---6*~~~~~-0---0---7---7---6*~~~~~-3---3---5*~~~~~-|
G-----------------------------------------------------------------|
C-----------------------------------------------------------------|

==================================================================


Guitar 1
D-----------------------------------------------------------------|
A-----------------------------------------------------------------|
F-5---5---5---5-------5---5---5---4---4---4---4-------------------|
C-5---5---5---5-------5---5---5---4---4---4---4-------------------|
G-3---3---3---3-------3---3---3---2---2---2---2-------------------|
C-----------------------------------------------------------------|

Guitar 2
D-----------------------------------------------------------------|
A-----------------------------------------------------------------|
F-----------------------------------------------------------------|
C-----------------5*----------------------------------------------|
G-3---3---3---3-------3---3---3---2---2---2---2-------------------|
C-----------------------------------------------------------------|

==================================================================
==================================================================


Verse 2

(x2)

Guitar 1
D-----------------------------------------------------------------|
A-----------------------------------------------------------------|
F-----------------------------------------------------------------|
C-3---0~~~~~~-3-0-3---0---------------3-0-3---0---3---0---3-5~~~~-|
G-3---0~~~~~~-3-0-3---0---------------3-0-3---0---3---0---3-5~~~~-|
C-3---0~~~~~~-3-0-3---0---------------3-0-3---0---3---0---3-5~~~~-|
pm            . . .                   . . .

Guitar 2
D-----------------------------------------------------------------|
A-----------------------------------------------------------------|
F-----------------------------------------------------------------|
C-3---0~~~~~~-3-0-3---0---------------3-0-3---0---3---0-----------|
G-3---0~~~~~~-3-0-3---0---------------3-0-3---0---3---0-----------|
C-3---0~~~~~~-3-0-3---0---------------3-0-3---0---3---0---5*~~~~~-|
pm            . . .                   . . .

==================================================================

Guitar 1
D-----------------------------------------------------------------|
A-----------------------------------------------------------------|
F-----------------------------------------------------------------|
C-3---0~~~~~~-3-0-3---0-------------------5-----------------------|
G-3---0~~~~~~-3-0-3---0-----------3-3-3-3---3-3-3-3-5-3-0---------|
C-3---0~~~~~~-3-0-3---0-----------------------------------3-5-3-0-|
pm            . . .

Guitar 2
D-----------------------------------------------------------------|
A-----------------------------------------------------------------|
F-------------------------------------------------5-7-5-----------|
C-3---0~~~~~~-3-0-3---0---------------------------------7-3-5-3-0-|
G-3---0~~~~~~-3-0-3---0-------------------------------------------|
C-3---0~~~~~~-3-0-3---0-------------------------------------------|
pm            . . .

==================================================================
==================================================================


Pre Chorus 1

Guitar 1
D-----------------------------------------------------------------|
A-----------------------------------------------------------------|
F-7---7---7---5---5---5---8---8---8---7---7---7---5---5---7---7---|
C-x---x---x---x---x---x---x---x---x---x---x---x---x---x---x---x---|
G-5---5---5---3---3---3---6---6---6---5---5---5---3---3---5---5---|
C-----------------------------------------------------------------|

==================================================================

Guitar 1
D-----------------------------------------------------------------|
A-----------------------------------------------------------------|
F-7---7---7---5---5---5---8---8---8-------------------------------|
C-x---x---x---x---x---x---x---x---x-------------------------------|
G-5---5---5---3---3---3---6---6---6-------------------------------|
C-----------------------------------------------------------------|

==================================================================
==================================================================


Chorus

Guitar 1
D-----------------------------------------------------------------|
A-----------------------------------------------------------------|
F-------------------------------------------------10--10--10--10--|
C-0~~~~~~-0~~~~~~-x---x-------x---0~~~~~~-0~~~~~~-x---x---x---x---|
G-0~~~~~~-0~~~~~~-x---x-------x---0~~~~~~-0~~~~~~-8---8---8---8---|
C-0~~~~~~-0~~~~~~-x---x-------x---0~~~~~~-0~~~~~~-----------------|

Guitar 2
D-----------------------------------------------------------------|
A-----------------------------------------------------------------|
F-----------------------------------------------------------------|
C-0~~~~~~-0~~~~~~-x---x-------x---0~~~~~~-0~~~~~~-----------------|
G-0~~~~~~-0~~~~~~-x---x-------x---0~~~~~~-0~~~~~~-----------------|
C-0~~~~~~-0~~~~~~-x---x-------x---0~~~~~~-0~~~~~~-----------------|

==================================================================

Guitar 1
D-----------------------------------------------------------------|
A-----------------------------------------------------------------|
F-----------------------------------------------------------------|
C-0~~~~~~-0~~~~~~-x---x-------x---0~~~~~~-0~~~~~~-5---3-----------|
G-0~~~~~~-0~~~~~~-x---x-------x---0~~~~~~-0~~~~~~---------5---3---|
C-0~~~~~~-0~~~~~~-x---x-------x---0~~~~~~-0~~~~~~-----------------|

Guitar 2
D-----------------------------------------------------------------|
A-----------------------------------------------------------------|
F-----------------------------------------------------------------|
C-0~~~~~~-0~~~~~~-x---x-------x---0~~~~~~-0~~~~~~-----------------|
G-0~~~~~~-0~~~~~~-x---x-------x---0~~~~~~-0~~~~~~-----------------|
C-0~~~~~~-0~~~~~~-x---x-------x---0~~~~~~-0~~~~~~-----------------|

==================================================================

Guitar 1
D-----------------------------------------------------------------|
A-----------------------------------------------------------------|
F-----------------------------------------------------------------|
C-3~~~~~~-3~~~~~~-3~~~~~~-3~~~~~~-3~~~~~~-3~~~~~~-3~~~~~~-3~~~~~~-|
G-3~~~~~~-3~~~~~~-3~~~~~~-3~~~~~~-3~~~~~~-3~~~~~~-3~~~~~~-3~~~~~~-|
C-3~~~~~~-3~~~~~~-3~~~~~~-3~~~~~~-3~~~~~~-3~~~~~~-3~~~~~~-3~~~~~~-|

Guitar 2
D-----------------------------------------------------------------|
A-15~~~~~-15~~~~~-15~~~~~-15~~~~~-13~~~~~-15~~~~~-18~~~~~-15~~~~~-|
F-----------------------------------------------------------------|
C-----------------------------------------------------------------|
G-----------------------------------------------------------------|
C-----------------------------------------------------------------|

==================================================================

Guitar 1
D-----------------------------------------------------------------|
A-----------------------------------------------------------------|
F-5~~~~~~-5~~~~~~-5~~~~~~-5~~~~~~-6~~~~~~-6~~~~~~-6~~~~~~-6~~~~~~-|
C-5~~~~~~-5~~~~~~-5~~~~~~-5~~~~~~-6~~~~~~-6~~~~~~-6~~~~~~-6~~~~~~-|
G-3~~~~~~-3~~~~~~-3~~~~~~-3~~~~~~-4~~~~~~-4~~~~~~-4~~~~~~-4~~~~~~-|
C-3~~~~~~-3~~~~~~-3~~~~~~-3~~~~~~-4~~~~~~-4~~~~~~-4~~~~~~-4~~~~~~-|

Guitar 2
D-----------------17~~~~~---------18~~~~~---------17~~~~~-15~~~~~-|
A-13~~~~~-13~~~~~---------13~~~~~---------14~~~~~-----------------|
F-----------------------------------------------------------------|
C-----------------------------------------------------------------|
G-----------------------------------------------------------------|
C-----------------------------------------------------------------|

==================================================================

Guitar 1
D-----------------------------------------------------------------|
A-----------------------------------------------------------------|
F-----------------------------------------------------------------|
C-0~~~~~~-0~~~~~~-x---x-------x---0~~~~~~-0~~~~~~-----------------|
G-0~~~~~~-0~~~~~~-x---x-------x---0~~~~~~-0~~~~~~-5---3-----------|
C-0~~~~~~-0~~~~~~-x---x-------x---0~~~~~~-0~~~~~~---------5---3---|

Guitar 2
D-----------------------------------------------------------------|
A-----------------------------------------------------------------|
F-----------------------------------------------------------------|
C-0~~~~~~-0~~~~~~-x---x-------x---0~~~~~~-0~~~~~~-----------------|
G-0~~~~~~-0~~~~~~-x---x-------x---0~~~~~~-0~~~~~~-----------------|
C-0~~~~~~-0~~~~~~-x---x-------x---0~~~~~~-0~~~~~~-----------------|

==================================================================

Guitar 1
D-----------------------------------------------------------------|
A-----------------------------------------------------------------|
F-----------------------------------------------------------------|
C-0~~~~~~-0~~~~~~-x---x-------x---0~~~~~~-0~~~~~~-----------------|
G-0~~~~~~-0~~~~~~-x---x-------x---0~~~~~~-0~~~~~~-5---3-----------|
C-0~~~~~~-0~~~~~~-x---x-------x---0~~~~~~-0~~~~~~---------5---3---|

Guitar 2
D-----------------------------------------------------------------|
A-----------------------------------------------------------------|
F-----------------------------------------------------------------|
C-0~~~~~~-0~~~~~~-x---x-------x---0~~~~~~-0~~~~~~-----------------|
G-0~~~~~~-0~~~~~~-x---x-------x---0~~~~~~-0~~~~~~-----------------|
C-0~~~~~~-0~~~~~~-x---x-------x---0~~~~~~-0~~~~~~-----------------|

==================================================================

Guitar 1
D-----------------------------------------------------------------|
A-----------------------------------------------------------------|
F-----------------------------------------------------------------|
C-3~~~~~~-3~~~~~~-3~~~~~~-3~~~~~~-3~~~~~~-3~~~~~~-3~~~~~~-3~~~~~~-|
G-3~~~~~~-3~~~~~~-3~~~~~~-3~~~~~~-3~~~~~~-3~~~~~~-3~~~~~~-3~~~~~~-|
C-3~~~~~~-3~~~~~~-3~~~~~~-3~~~~~~-3~~~~~~-3~~~~~~-3~~~~~~-3~~~~~~-|

Guitar 2
D-----------------------------------------------------------------|
A-15~~~~~-15~~~~~-15~~~~~-15~~~~~-13~~~~~-15~~~~~-18~~~~~-15~~~~~-|
F-----------------------------------------------------------------|
C-----------------------------------------------------------------|
G-----------------------------------------------------------------|
C-----------------------------------------------------------------|

==================================================================

Guitar 1
D-----------------------------------------------------------------|
A-----------------------------------------------------------------|
F-5~~~~~~-5~~~~~~-5~~~~~~-5~~~~~~-6~~~~~~-6~~~~~~-6~~~~~~-6~~~~~~-|
C-5~~~~~~-5~~~~~~-5~~~~~~-5~~~~~~-6~~~~~~-6~~~~~~-6~~~~~~-6~~~~~~-|
G-3~~~~~~-3~~~~~~-3~~~~~~-3~~~~~~-4~~~~~~-4~~~~~~-4~~~~~~-4~~~~~~-|
C-3~~~~~~-3~~~~~~-3~~~~~~-3~~~~~~-4~~~~~~-4~~~~~~-4~~~~~~-4~~~~~~-|

Guitar 2
D-----------------17~~~~~---------18~~~~~---------17~~~~~-15~~~~~-|
A-13~~~~~-13~~~~~---------13~~~~~---------14~~~~~-----------------|
F-----------------------------------------------------------------|
C-----------------------------------------------------------------|
G-----------------------------------------------------------------|
C-----------------------------------------------------------------|

==================================================================
==================================================================


Bridge 1

Guitar 1
D-----------------------------------------------------------------|
A-----------------------------------------------------------------|
F-----------------------------------------------------------------|
C-0---0---0---0-----------0---0---0---0-----------0---0-----------|
G-0---0---0---0-----------0---0---0---0-----------0---0-----------|
C-0---0---0---0-----------0---0---0---0-----------0---0-----------|
pm.   .   .   .           .   .   .   .           .   .

Guitar 2
D-----------------------------------------------------------------|
A-----------------------------------------------------------------|
F-----------------------------------------------------------------|
C-0---0---7---7---6*~~~~~-0---0---7---7---6*~~~~~-3---3---5*~~~~~-|
G-----------------------------------------------------------------|
C-----------------------------------------------------------------|

==================================================================

Guitar 1
D-----------------------------------------------------------------|
A-----------------------------------------------------------------|
F-----------------------------------------------------------------|
C-0---0---0---0-----------0---0---0---0-----------0---0-----------|
G-0---0---0---0-----------0---0---0---0-----------0---0-----------|
C-0---0---0---0-----------0---0---0---0-----------0---0-----------|
pm.   .   .   .           .   .   .   .           .   .

Guitar 2
D-----------------------------------------------------------------|
A-----------------------------------------------------------------|
F-----------------------------------------------------------------|
C-0---0---7---7---6*~~~~~-0---0---3---3---5---5---6---6-----------|
G---------------------------------------------------------6~~~~~~-|
C-----------------------------------------------------------------|

==================================================================

Guitar 1
D-----------------------------------------------------------------|
A-----------------------------------------------------------------|
F-----------------------------------------------------------------|
C-0---0---0---0-----------0---0---0---0-----------0---0-----------|
G-0---0---0---0-----------0---0---0---0-----------0---0-----------|
C-0---0---0---0-----------0---0---0---0-----------0---0-----------|
pm.   .   .   .           .   .   .   .           .   .

Guitar 2
D-----------------------------------------------------------------|
A-----------------------------------------------------------------|
F-----------------------------------------------------------------|
C-0---0---7---7---6*~~~~~-0---0---7---7---6*~~~~~-3---3---5*~~~~~-|
G-----------------------------------------------------------------|
C-----------------------------------------------------------------|

==================================================================

Guitar 1
D-----------------------------------------------------------------|
A-----------------------------------------------------------------|
F-5---5---5---5-------5---5---5---4---4---4---4-------4---4---4---|
C-5---5---5---5-------5---5---5---4---4---4---4-------4---4---4---|
G-3---3---3---3-------3---3---3---2---2---2---2-------2---2---2---|
C-----------------------------------------------------------------|
pm.   .   .   .       .   .   .   .   .   .   .       .   .   .

Guitar 2
D-----------------------------------------------------------------|
A-----------------------------------------------------------------|
F-----------------------------------------------------------------|
C-----------------5*------------------------------12\~~~~~~~~~~~~-|
G-3---3---3---3-------3---3---3---2---2---2---2---12\~~~~~~~~~~~~-|
C-------------------------------------------------12\~~~~~~~~~~~~-|

==================================================================
==================================================================


Guitar Solo

Guitar 1
D-----------------------------------------------------------------|
A-----------------------------------------------------------------|
F-------------------------7~~~~~~~~~~-----------------------------|
C-3---0~~~~~~-3-0-3---0---7~~~~~~~~~~-3-0-3---0---3---0---3-5~~~~-|
G-3---0~~~~~~-3-0-3---0---5~~~~~~~~~~-3-0-3---0---3---0---3-5~~~~-|
C-3---0~~~~~~-3-0-3---0---------------3-0-3---0---3---0---3-5~~~~-|

Guitar 2
D-----------------------------------------------------------------|
A-------------10/12\10------------------------15------------------|
F-10----------10/12\10------10-12-12b~~~~-14------14--17p14p12-14-|
C-----12~~~~~-----------12----------------------------------------|
G-----------------------------------------------------------------|
C-----------------------------------------------------------------|

Guitar 2 continued
D-----------------------------------------|
A-----------------------------------------|
F-12h14p12-------10--14p10-12p10----10----|
C----------15-14-----------------12----12-|
G-----------------------------------------|
C-----------------------------------------|

==================================================================

Guitar 1
D-----------------------------------------------------------------|
A-----------------------------------------------------------------|
F-------------------------7~~~~~~---------------------------------|
C-3---0~~~~~~-3-0-3---0---7~~~~~~---------5---------------5-------|
G-3---0~~~~~~-3-0-3---0---5~~~~~~-3-3-3-3---3-3-3-2-2-2-2---2-2-2-|
C-3---0~~~~~~-3-0-3---0-------------------------------------------|

Guitar 2
D-------------------------------------------------------------|
A-10----------------10----------------------------------------|
F-10----------10-12-10----------------------------12----------|
C-----12~~~~~-----------12--10-12-12--10-10-10-10----10-10-10-|
G-------------------------------------------------------------|
C-------------------------------------------------------------|

Guitar 2 continued
D-------------------------|
A-------------------------|
F-------------------------|
C-10-12-10----------------|
G----------12-10\~~~~~~~~-|
C-------------------------|

==================================================================

Guitar 1
D-----------------------------------------------------------------|
A-----------------------------------------------------------------|
F-------------------------7~~~~~~~~~~-----------------------------|
C-3---0~~~~~~-3-0-3---0---7~~~~~~~~~~-3-0-3---0---3---0---3-5~~~~-|
G-3---0~~~~~~-3-0-3---0---5~~~~~~~~~~-3-0-3---0---3---0---3-5~~~~-|
C-3---0~~~~~~-3-0-3---0---------------3-0-3---0---3---0---3-5~~~~-|

Guitar 2
D-----------------------------------------------------------------|
A-13~~~-13~~~-10~~~-10~~~-10~~~~~-13~~~-13~~~-15~~~-15~~~-15~~~~~-|
F-16b~~-16b~~-13b~~-13b~~-13b~~~~-16b~~-16b~~-18b~~-18b~~-18b~~~~-|
C-----------------------------------------------------------------|
G-----------------------------------------------------------------|
C-----------------------------------------------------------------|

==================================================================

Guitar 1
D-----------------------------------------------------------------|
A-----------------------------------------------------------------|
F-------------------------7~~~~~~---------------------------------|
C-3---0~~~~~~-3-0-3---0---7~~~~~~---------5---------------5-------|
G-3---0~~~~~~-3-0-3---0---5~~~~~~-3-3-3-3---3-3-3-2-2-2-2---2-2-2-|
C-3---0~~~~~~-3-0-3---0-------------------------------------------|

Guitar 2
D-12~~~-12~~~-13~~~-13~~~-15~~~~~-------------------------------15--|
A-16b~~-16b~~-17b~~-17b~~-19b~~~~-13p10----13p10------------15------|
F---------------------------------------12-------12-14--17----------|
C-------------------------------------------------------------------|
G-------------------------------------------------------------------|
C-------------------------------------------------------------------|

Guitar 2 continued
D-16b-16b-16b-16b-16b-16b-16b-16b-|
A---------------------------------|
F---------------------------------|
C---------------------------------|
G---------------------------------|
C---------------------------------|

==================================================================
==================================================================


Pre Chorus 2

Guitar 1
D-----------------------------------------------------------------|
A-----------------------------------------------------------------|
F-7---7---7---5---5---5---8---8---8---7---7---7---5---5---7---7---|
C-x---x---x---x---x---x---x---x---x---x---x---x---x---x---x---x---|
G-5---5---5---3---3---3---6---6---6---5---5---5---3---3---5---5---|
C-----------------------------------------------------------------|

Guitar 2 (echo effect)
D-16b\~~~---------------------------------------------------------|
A-----------------------------------------------------------------|
F-----------------------------------------------------------------|
C-----------------------------------------------------------------|
G-----------------------------------------------------------------|
C-----------------------------------------------------------------|


==================================================================

Guitar 1
D-----------------------------------------------------------------|
A-----------------------------------------------------------------|
F-7---7---7---5---5---5---8---8---8---12--12--12--11--11--11--11--|
C-x---x---x---x---x---x---x---x---x---x---x---x---x---x---x---x---|
G-5---5---5---3---3---3---6---6---6---10--10--10--9---9---9---9---|
C-----------------------------------------------------------------|

Guitar 1
D-----------------------------------------------------------------|
A-----------------------------------------------------------------|
F-7---7---7---5---5---5---8---8---8---7---7---7---5---5---7---7---|
C-x---x---x---x---x---x---x---x---x---x---x---x---x---x---x---x---|
G-5---5---5---3---3---3---6---6---6---5---5---5---3---3---5---5---|
C-----------------------------------------------------------------|

==================================================================

Guitar 1
D-----------------------------------------------------------------|
A-----------------------------------------------------------------|
F-7---7---7---5---5---5---8---8---8---12--12--12------------------|
C-x---x---x---x---x---x---x---x---x---x---x---x-------------------|
G-5---5---5---3---3---3---6---6---6---10--10--10------------------|
C-----------------------------------------------------------------|

==================================================================
==================================================================


Chorus

Guitar 1
D-----------------------------------------------------------------|
A-----------------------------------------------------------------|
F-------------------------------------------------10--10--10--10--|
C-0~~~~~~-0~~~~~~-x---x-------x---0~~~~~~-0~~~~~~-x---x---x---x---|
G-0~~~~~~-0~~~~~~-x---x-------x---0~~~~~~-0~~~~~~-8---8---8---8---|
C-0~~~~~~-0~~~~~~-x---x-------x---0~~~~~~-0~~~~~~-----------------|

Guitar 2
D-----------------------------------------------------------------|
A-----------------------------------------------------------------|
F-----------------------------------------------------------------|
C-0~~~~~~-0~~~~~~-x---x-------x---0~~~~~~-0~~~~~~-----------------|
G-0~~~~~~-0~~~~~~-x---x-------x---0~~~~~~-0~~~~~~-----------------|
C-0~~~~~~-0~~~~~~-x---x-------x---0~~~~~~-0~~~~~~-----------------|

==================================================================

Guitar 1
D-----------------------------------------------------------------|
A-----------------------------------------------------------------|
F-----------------------------------------------------------------|
C-0~~~~~~-0~~~~~~-x---x-------x---0~~~~~~-0~~~~~~-5---3-----------|
G-0~~~~~~-0~~~~~~-x---x-------x---0~~~~~~-0~~~~~~---------5---3---|
C-0~~~~~~-0~~~~~~-x---x-------x---0~~~~~~-0~~~~~~-----------------|

Guitar 2
D-----------------------------------------------------------------|
A-----------------------------------------------------------------|
F-----------------------------------------------------------------|
C-0~~~~~~-0~~~~~~-x---x-------x---0~~~~~~-0~~~~~~-----------------|
G-0~~~~~~-0~~~~~~-x---x-------x---0~~~~~~-0~~~~~~-----------------|
C-0~~~~~~-0~~~~~~-x---x-------x---0~~~~~~-0~~~~~~-----------------|

==================================================================

Guitar 1
D-----------------------------------------------------------------|
A-----------------------------------------------------------------|
F-----------------------------------------------------------------|
C-3~~~~~~-3~~~~~~-3~~~~~~-3~~~~~~-3~~~~~~-3~~~~~~-3~~~~~~-3~~~~~~-|
G-3~~~~~~-3~~~~~~-3~~~~~~-3~~~~~~-3~~~~~~-3~~~~~~-3~~~~~~-3~~~~~~-|
C-3~~~~~~-3~~~~~~-3~~~~~~-3~~~~~~-3~~~~~~-3~~~~~~-3~~~~~~-3~~~~~~-|

Guitar 2
D-----------------------------------------------------------------|
A-15~~~~~-15~~~~~-15~~~~~-15~~~~~-13~~~~~-15~~~~~-18~~~~~-15~~~~~-|
F-----------------------------------------------------------------|
C-----------------------------------------------------------------|
G-----------------------------------------------------------------|
C-----------------------------------------------------------------|

==================================================================

Guitar 1
D-----------------------------------------------------------------|
A-----------------------------------------------------------------|
F-5~~~~~~-5~~~~~~-5~~~~~~-5~~~~~~-6~~~~~~-6~~~~~~-6~~~~~~-6~~~~~~-|
C-5~~~~~~-5~~~~~~-5~~~~~~-5~~~~~~-6~~~~~~-6~~~~~~-6~~~~~~-6~~~~~~-|
G-3~~~~~~-3~~~~~~-3~~~~~~-3~~~~~~-4~~~~~~-4~~~~~~-4~~~~~~-4~~~~~~-|
C-3~~~~~~-3~~~~~~-3~~~~~~-3~~~~~~-4~~~~~~-4~~~~~~-4~~~~~~-4~~~~~~-|

Guitar 2
D-----------------17~~~~~---------18~~~~~---------17~~~~~-15~~~~~-|
A-13~~~~~-13~~~~~---------13~~~~~---------14~~~~~-----------------|
F-----------------------------------------------------------------|
C-----------------------------------------------------------------|
G-----------------------------------------------------------------|
C-----------------------------------------------------------------|

==================================================================

Guitar 1
D-----------------------------------------------------------------|
A-----------------------------------------------------------------|
F-------------------------------------------------10--10--10--10--|
C-0~~~~~~-0~~~~~~-----------------0~~~~~~-0~~~~~~-x---x---x---x---|
G-0~~~~~~-0~~~~~~-----------------0~~~~~~-0~~~~~~-8---8---8---8---|
C-0~~~~~~-0~~~~~~-----------------0~~~~~~-0~~~~~~-----------------|

Guitar 2
D-----------------------------------------------------------------|
A-----------------------------------------------------------------|
F-----------------------------------------------------------------|
C-0~~~~~~-0~~~~~~-----------------0~~~~~~-0~~~~~~-----------------|
G-0~~~~~~-0~~~~~~-----------------0~~~~~~-0~~~~~~-----------------|
C-0~~~~~~-0~~~~~~-----------------0~~~~~~-0~~~~~~-----------------|

==================================================================

Guitar 1
D-----------------------------------------------------------------|
A-----------------------------------------------------------------|
F-----------------------------------------------------------------|
C-0~~~~~~-0~~~~~~-x---x-------x---0~~~~~~-0~~~~~~-5---3-----------|
G-0~~~~~~-0~~~~~~-x---x-------x---0~~~~~~-0~~~~~~---------5---3---|
C-0~~~~~~-0~~~~~~-x---x-------x---0~~~~~~-0~~~~~~-----------------|

Guitar 2
D-----------------------------------------------------------------|
A-----------------------------------------------------------------|
F-----------------------------------------------------------------|
C-0~~~~~~-0~~~~~~-x---x-------x---0~~~~~~-0~~~~~~-----------------|
G-0~~~~~~-0~~~~~~-x---x-------x---0~~~~~~-0~~~~~~-----------------|
C-0~~~~~~-0~~~~~~-x---x-------x---0~~~~~~-0~~~~~~-----------------|

==================================================================

Guitar 1
D-----------------------------------------------------------------|
A-----------------------------------------------------------------|
F-----------------------------------------------------------------|
C-3~~~~~~-3~~~~~~-3~~~~~~-3~~~~~~-3~~~~~~-3~~~~~~-3~~~~~~-3~~~~~~-|
G-3~~~~~~-3~~~~~~-3~~~~~~-3~~~~~~-3~~~~~~-3~~~~~~-3~~~~~~-3~~~~~~-|
C-3~~~~~~-3~~~~~~-3~~~~~~-3~~~~~~-3~~~~~~-3~~~~~~-3~~~~~~-3~~~~~~-|

Guitar 2
D-----------------------------------------------------------------|
A-15~~~~~-15~~~~~-15~~~~~-15~~~~~-13~~~~~-15~~~~~-18~~~~~-15~~~~~-|
F-----------------------------------------------------------------|
C-----------------------------------------------------------------|
G-----------------------------------------------------------------|
C-----------------------------------------------------------------|

==================================================================

Guitar 1
D-----------------------------------------------------------------|
A-----------------------------------------------------------------|
F-5~~~~~~-5~~~~~~-5~~~~~~-5~~~~~~-6~~~~~~-6~~~~~~-6~~~~~~-6~~~~~~-|
C-5~~~~~~-5~~~~~~-5~~~~~~-5~~~~~~-6~~~~~~-6~~~~~~-6~~~~~~-6~~~~~~-|
G-3~~~~~~-3~~~~~~-3~~~~~~-3~~~~~~-4~~~~~~-4~~~~~~-4~~~~~~-4~~~~~~-|
C-3~~~~~~-3~~~~~~-3~~~~~~-3~~~~~~-4~~~~~~-4~~~~~~-4~~~~~~-4~~~~~~-|

Guitar 2
D-----------------17~~~~~---------18~~~~~---------17~~~~~-15~~~~~-|
A-13~~~~~-13~~~~~---------13~~~~~---------14~~~~~-----------------|
F-----------------------------------------------------------------|
C-----------------------------------------------------------------|
G-----------------------------------------------------------------|
C-----------------------------------------------------------------|

==================================================================
==================================================================


Outro

Guitar 1
D-----------------------------------------------------------------|
A-----------------------------------------------------------------|
F-----------------------------------------------------------------|
C-0---0-------------------0---0-------------------5~~~\~~~~~~~~~~-|
G-0---0-------------------0---0-------------------5~~~\~~~~~~~~~~-|
C-0---0-------------------0---0-------------------5~~~\~~~~~~~~~~-|

Guitar 2
D-----------------------------------------------------------------|
A-----------------------------------------------------------------|
F-----------------------------------------------------------------|
C-0---0---7---7---6*~~~~~-0---0---7---7---6*~~~~~-3---3---5*~~~~~-|
G-----------------------------------------------------------------|
C-----------------------------------------------------------------|

==================================================================

Guitar 1
D-----------------------------------------------------------------|
A-----------------------------------------------------------------|
F-----------------------------------------------------------------|
C-0---0-------------------0---0-----------------------------------|
G-0---0-------------------0---0-----------------------------------|
C-0---0-------------------0---0-----------------------------------|

Guitar 2
D-----------------------------------------------------------------|
A-----------------------------------------------------------------|
F-----------------------------------------------------------------|
C-0---0---7---7---6*~~~~~-0---0---7---7---6*~~~~~-3---3---5*~~~~~-|
G-----------------------------------------------------------------|
C-----------------------------------------------------------------|

==================================================================

Guitar 1
D-----------------------------------------------------------------|
A-----------------------------------------------------------------|
F-----------------------------------------------------------------|
C-0---0-------------------0---0-------------------5~~~\~~~~~~~~~~-|
G-0---0-------------------0---0-------------------5~~~\~~~~~~~~~~-|
C-0---0-------------------0---0-------------------5~~~\~~~~~~~~~~-|

Guitar 2
D-----------------------------------------------------------------|
A-----------------------------------------------------------------|
F-----------------------------------------------------------------|
C-0---0---7---7---6*~~~~~-0---0---7---7---6*~~~~~-3---3---5*~~~~~-|
G-----------------------------------------------------------------|
C-----------------------------------------------------------------|

==================================================================

Guitar 1
D-----------------------------------------------------------------|
A-----------------------------------------------------------------|
F-----------------------------------------------------------------|
C-0---0-------------------0---0-----------------------------------|
G-0---0-------------------0---0-----------------------------------|
C-0---0-------------------0---0-----------------------------------|
Pm.   .                   .   .

Guitar 2
D-----------------------------------------------------------------|
A-----------------------------------------------------------------|
F-----------------------------------------------------------------|
C-0---0---7---7---6*~~~~~-0---0---7---7---6*~~~~~-----------------|
G-----------------------------------------------------------------|
C-----------------------------------------------------------------|

==================================================================
==================================================================
==================================================================

Tab Legend
h - hammer-on
p - pull-off
/ - slide up
\ - slide down
ps/- pickslide up
ps\- pickslide down
~ - let ring
pm.- palm mute
b - bend
r - return from bend
* - harmonic
x - dead note
^ - Whammy bar
^\ - Whammy bar (hold down)

That’s it! Hopefully this tab has helped you and if you’ve got any problem be sure to 
check out my cover for visuals. Thanks, oh and one last thing... ROCK OUT!!!!
comments
We did not receive enough feedback on this tab! Please rate:
print report bad tab
1 2 3 4 5
I want to post or [tab]
guest
You may want to rate the tab now too:
select rating
Please do not post tabs as comments. Select "correction" instead!