Oops, an error
Loading. Please wait.

Potters Field Tab

2,097 views 1 this week
3 commentsread comments
1 2 3 4 5
excellent!
x 4
add to favorites launch autoscroll
font size
0
reset
Autoscroll
+/-
esc
set tempo
stop
Contributor
WARNING: You are trying to view
                                    content from Ultimate-Guitar.com
                                    in an unauthorized application,
                                    which is prohibited.

                                    Please use an official Ultimate
                                    Guitar Tabs application for iPhone,
                                    iPad or Android to access legitimate
                                    chords, guitar, bass, and drum tabs
                                    from Ultimate-Guitar.com database.

                                    Type "ultimate guitar tabs" in Apple
                                    App Store's or Android Market's
                                    search to find the application.
Band- 12 Stones
Album- Potter's Field

Tracks:
1.Shadows
2.The Last Song
3.Far Away
4.Speak Your Mind
5.Lifeless
6.Bitter
7.Photograph
8.3 Leaf Loser
9.Stay
10.Waiting For Yesterday
11.In Closing

******These are not my tabs,I give all credit to the people who originally tabbed these songs.

---------------------------------

1.SHADOWS
Tuning- Drop C

 Intro/Interlude (with wah pedal)
 |------------------------------|
 |------------------------------|
 |-------7--7-------7--7-----5--|
 |-0-0-0------0-0-0-------------|
 |-0-0-0-5--5-0-0-0-5--5-----3--|
 |-0-0-0------0-0-0------0-0----|

 Verse (not sure if hes playing different notes or just using pedals,
 but its close enough)
 |----------------------------------------|
 |----------------3-1---------------0h1-0-|
 |---2---2---2----------2---2---2---------|
 |-0---0---0---0------0---0---0---0-------|
 |----------------------------------------|
 |----------------------------------------|

 Pre Chourus
 |----------------------------------------|
 |----------------------------------------|
 |-7--7-7-7--7-5--5-5-5-------------------|
 |-7--7-7-7--7-5--5-5-5-3--3-3-3-3-5--5-5-|
 |-5--5-5-5--5-3--3-3-3-3--3-3-3-3-5--5-5-|
 |----------------------3--3-3-3-3-5--5-5-|

Chorus
 |----------------------------------------|
 |----------------------------------------|
 |----------------------------------------|
 |-0--0-0--0-0-0-0-3--3-3-3-5-5-5---------|
 |-0--0-0--0-0-0-0-3--3-3-3-5-5-5---------|
 |-0--0-0--0-0-0-0-3--3-3-3-5-5-5---------|

----------------------------------------

2.THE LAST SONG
Tuning- Drop C

Intro (first time palm muted)
 |-----------------------------------------------------------------|
 |-----------------------------------------------------------------|
 |-----------------------------------------------------------------|
 |---------8-8-------------4-4-------------6-6-------------6-------|
 |-----6-6-----6-6-----2-2-----2-2-----4-4-----4-4-----4-4---------|
 |-6-6-------------2-2-------------4-4-------------4-4-------------|


 Verse (sounds good with some chorus)
 |------------------------------------------|
 |------------------------------------------|
 |------------------------------------------|
 |--------8-8---------4-4------6-6-6-6-6-6--|
 |---6----6-6----2----2-2---4--4-4-4-4-4-4--|
 |-6----6-6-6--2----2-2-2-4----4-4-4-4-4-4--|


 Chorus
 |-----------------------------------------------------------------|
 |-----------------------------------------------------------------|
 |-----------------4-4-4-4-6-6-6-6---------------------------------|
 |-6-6-6-6-4-4-4-4-2-2-2-2-4-4-4-4-6-6-6-6-4-4-4-4-2-2-2-2-2-2-2-2-|
 |-6-6-6-6-4-4-4-4-2-2-2-2-4-4-4-4-6-6-6-6-4-4-4-4-2-2-2-2-2-2-2-2-|
 |-6-6-6-6-4-4-4-4-----------------6-6-6-6-4-4-4-4-2-2-2-2-2-2-2-2-|

 Post Chorus
 |-----------------------------------------------------------------|
 |-----------------------------------------------------------------|
 |-----------------------------------------------------------------|
 |---------8-8-------------4-4---------------8-8-------------4-4---|
 |-----6-6-----6-6-----2-2-----2-2-------6-6-----6-6-----2-2-----2-|
 |-6-6-------------2-2---------------6-6-------------2-2-----------|

 Solo Background
 |-----------------------------------------------------------------|
 |-----------------------------------------------------------------|
 |-----------------------------------------------------------------|
 |-6--6-x-x-6--6-6--6-6-6-6-2--2-x-x-2--2-2--2-2-2-2---------------|
 |-6--6-x-x-6--6-6--6-6-6-6-2--2-x-x-2--2-2--2-2-2-2---------------|
 |-6--6-x-x-6--6-6--6-6-6-6-2--2-x-x-2--2-2--2-2-2-2---------------|

---------------------------------

3.FAR AWAY
Tuning- Drop C

Intro/Chorus
 |-----------------------------------------------------------------|
 |-----------------------------------------------------------------|
 |-----------------------------------------------------------------|
 |-9-9-9--9-7-9-7--5-5-5--5-5-2-2--9-9-9--9-7-9-7--5-5-5--5-5-5-5--|
 |-9-9-9--9-7-9-7--5-5-5--5-5-2-2--9-9-9--9-7-9-7--5-5-5--5-5-5-5--|
 |-9-9-9--9-7-9-7--5-5-5--5-5-2-2--9-9-9--9-7-9-7--5-5-5--5-5-5-5--|

 |-----------------------------------------------------------------|
 |-----------------------------------------------------------------|
 |-----------------------------------------------------------------|
 |-9-9-9--9-7-9-7--2-2-2--2-2-5-5--9-9-9--9-7-9-7--5-5-5--5-5-5-5--|
 |-9-9-9--9-7-9-7--2-2-2--2-2-5-5--9-9-9--9-7-9-7--5-5-5--5-5-5-5--|
 |-9-9-9--9-7-9-7--2-2-2--2-2-5-5--9-9-9--9-7-9-7--5-5-5--5-5-5-5--|

 Verse
 |-----------------------------------------------------------------|
 |-----------------------------------------------------------------|
 |-----------------------------------------------------------------|
 |-9-9--9-------9-9--9------9-9--9------9-9--9---------------------|
 |-9-9--9-------9-9--9------9-9--9------9-9--9---------------------|
 |-9-9--9-------9-9--9------9-9--9------9-9--9---------------------|

 |-----------------------------------------------------------------------------------------------|
 |-----------------------------------------------------------------------------------------------|
 |------------------------------------------------------------------------------------------11---|
 |-12-12-12-12-9-9--9-9-12-12-12---12-11-11-11---11----------9-9--9-9-12-12-12--12-11-11-11------|
 |-------------9-9--9-------------------------------12-12-12-9-9--9------------------------------|
 |-------------9-9--9----------------------------------------9-9--9------------------------------|

 2nd Verse
 |--------------------------------|
 |--------------------------------|
 |--------------------------------|
 |-9-9-9--9-9-0-0-5-5-5--5-5-7-7--|
 |-9-9-9--9-9-0-0-5-5-5--5-5-7-7--|
 |-9-9-9--9-9-0-0-5-5-5--5-5-7-7--|

 Interlude
 |------------------------------------------------------------|
 |------------------------------------------------------------|
 |------------------------------------------------------------|
 |-5--5-5--5-5-5--7--7-7--7-7-7--9--9-9--9-9-9--4--4-4--4-4-4-|
 |-5--5-5--5-5-5--7--7-7--7-7-7--9--9-9--9-9-9--4--4-4--4-4-4-|
 |-5--5-5--5-5-5--7--7-7--7-7-7--9--9-9--9-9-9--4--4-4--4-4-4-|

 Outro
 |------------------------------------------------------------|
 |------------------------------------------------------------|
 |------------------------------------------------------------|
 |-7h9-9-9--9--7h9-9-9--9--7h9-9-9--9--7h9-10p9-7h9-----------|
 |-7h9-9-9--9--7h9-9-9--9--7h9-9-9--9--7h9-10p9-7h9-----------|
 |-7h9-9-9--9--7h9-9-9--9--7h9-9-9--9--7h9-10p9-7h9-----------|

---------------------------------

4.SPEAK YOUR MIND
Tuning- Drop C

Intro
D---------------------------------------------------------------------------|
A---------------------------------------------------------------------------|
F----------------------------------10\9----------------------------------10-|
C-00-9h10-0-10h12-0-9h10-0-10h12-0-x--x-00-9h10-0-10h12-0-9h10-0-10h12-0-x--|
G-00-9h10-0-10h12-0-9h10-0-10h12-0-8-\7-00-9h10-0-10h12-0-9h10-0-10h12-0-8--|
C-00-9h10-0-10h12-0-9h10-0-10h12-0------00-9h10-0-10h12-0-9h10-0-10h12-0----|
  **      *       *      *       *      **      *       *      *       *

Intro(continued) When the drums come in                       After second time repeat
D--------------------------------------------                 D----|
A--------------------------------------------                 A----|
F---------------------------------------10\9-                 F-10-|
C-00-10-11-12-10-12-0-10-11-12-10-12-12-x--x-                 C-x--|
G-00-10-11-12-10-12-0-10-11-12-10-12-12-8-\7-                 G-8--|
C-00-10-11-12-10-12-0-10-11-12-10-12-12------                 c----|

Repeat the whole "Intro(continued)" 2 times

Verse   "How does it make you feel, when I look away..."
D-----------------------------------------------------------|
A---------------------------8-7---------------------------8-|
F----5-6-7-5-7--5-6-7-5-7-7--------5-6-7-5-7--5-6-7-5-7-7---|
C-00----------0-----------------00----------0---------------|
G-----------------------------------------------------------|
C-----------------------------------------------------------|
  ** * * * * ** * * * * * *     ** * * * * ** * * * * * *

Pre-chorus   "I try to find you, you hold your head up high..."
for the pre-chorus play the "Intro(continued)" riff once

Fill  "I let it all fall down, can you hear me?"
D---------------------------------------------------------------------------|
A---------------------------------------------------------------------------|
F----------------------------------10\9----------------------------------10-|
C-00-9h10-0-10h12-0-9h10-0-10h12-0-x--x-00-9h10-0-10h12-0-9h10-0-10h12-0-x--|
G-00-9h10-0-10h12-0-9h10-0-10h12-0-8-\7-00-9h10-0-10h12-0-9h10-0-10h12-0-8--|
C-00-9h10-0-10h12-0-9h10-0-10h12-0------00-9h10-0-10h12-0-9h10-0-10h12-0----|
  ** * ** * ** ** * * ** * ** ** *      **      *       *      *       *

Chorus(strum chords)
D-------------------------|
A-------------------------|
F-------------------------|
C-0----10----5----8----10-|
G-0----10----5----8----10-|
C-0----10----5----8----10-|

Leading out of chorus
D----------------------------------------------------------------------------|
A----------------------------------------------------------------------------|
F--------------------------------------10-\9---------------------------------|
C-00-10-11-12-10-12-0-10-11-12-10-12-12-x--x-00-10-11-12-10-12-0-10-11-12-10-|
G-00-10-11-12-10-12-0-10-11-12-10-12-12-8-\7-00-10-11-12-10-12-0-10-11-12-10-|
C-00-10-11-12-10-12-0-10-11-12-10-12-12------00-10-11-12-10-12-0-10-11-12-10-|

Then the verse
Then the pre-chorus
Then the fill before chorus
Then the chorus

For the solo, guitar 1 plays the chorus riffs

Solo(guitar 2)
D-----------------------------------------------------------------------------|
A-----------------------------------------------------------------------------|
F--------------------------------------------------------------------------19-|
C----10----10-12-12-12--15-15-15-14h15-14---14-15-17--17-15-15-17-15-17h19----|
G-12----12-------------------------------15-----------------------------------|
C-----------------------------------------------------------------------------|

-------------------------------------------------------17-17-17-17-17-15-13---|
------------------------------------------------------------------------------|
-19------------------------------17-17--19p17----17h19------------------------|
----17h19-19-17---15--15---17-19--------------19------------------------------|
---------------17---17--17----------------------------------------------------|
------------------------------------------------------------------------------|

----13-----------------------------------------------------------------------------|
-15---15-15-15-15-15-15-17-17-17-17-17-17--15-13--13-------------------------------|
------------------------------------------------14---17-15-17-15-17p15----------19-|
-----------------------------------------------------------------------17-17h19----|
-----------------------------------------------------------------------------------|
-----------------------------------------------------------------------------------|

------------------------------------------------------|
------------------------------------------------------|
------------------------------------------------------|
-19p17-19-19--17p15-----19-19-19-19-19-17-------------|
--------------------17--------------------20-17-20-17-|
------------------------------------------------------|
                                                   ^^Let ring

Then the little bass solo

Bridge  "Find the words to say, how you feel inside..."  repeat x2
D----------------------------------------------------|
A-----------------------8-7------------------------8-|
F----4-5--5-7--4-5--5-7---------4-5--5-7--4-5--5-7---|
C-00----0----0----0----0-----00----0----0----0-------|
G----------------------------------------------------|
C----------------------------------------------------|
  ** * ** * ** * ** * **     ** * ** * ** * ** * *

Bridge(continued)
D--------------------------------------------------------------------------|
A--------------------------------------------------------------------------|
F---------------------------------10\9----------------------------------10-|
C-00-9-10-0-10-12-0-9-10-0-10-12-0-x-x-00-9-10-0-10-12-0-9-10-0-10-12-0-x--|
G-00-9-10-0-10-12-0-9-10-0-10-12-0-8\7-00-9-10-0-10-12-0-9-10-0-10-12-0-8--|
C-00-9-10-0-10-12-0-9-10-0-10-12-0-----00-9-10-0-10-12-0-9-10-0-10-12-0----|

Bridge(continued)
D------------------------------------------------------------------------------------|
A------------------------------------------------------------------------------------|
F--------------------------------------10-\9--------------------------------------10-|
C-00-10-11-12-10-12-0-10-11-12-10-12-12-x--x-00-10-11-12-10-12-0-10-11-12-10-12-12-x-|
G-00-10-11-12-10-12-0-10-11-12-10-12-12-8-\7-00-10-11-12-10-12-0-10-11-12-10-12-12-8-|
C-00-10-11-12-10-12-0-10-11-12-10-12-12------00-10-11-12-10-12-0-10-11-12-10-12-12---|

Then the chorus

Chorus(guitar 2, only near the end of the song) strummed
D------------------------|
A------------------------|
F-7----8----10---15---17-|
C-x----x----x----x----x--|
G-5----6----8----13---15-|
C------------------------|

Outro
D-----------------------------------------|
A-----------------------------------------|
F----------------------------------10\9---|
C-00-9h10-0-10h12-0-9h10-0-10h12-0-x--x-0-|
G-00-9h10-0-10h12-0-9h10-0-10h12-0-8-\7-0-|
C-00-9h10-0-10h12-0-9h10-0-10h12-0------0-|
  **      *       *      *       *      ^Let ring

------------------------------------------

5.LIFELESS
Tuning- Drop C

intro/verse
e|------------------------------------------------------------------------|
b|------------------------------------------------------------------------|
g|--------7---7/10--------10---10/12--------------------------------------|
d|-0--0-0---0------8--8-8----0--------------------------------------------|
a|-0--0-0-5-0-5/8--8--8-8-8--0-8-/10--------------------------------------|
e|-0--0-0---0------8--8-8----0--------------------------------------------|
chorus
e|------------------------------------------------------------------------|
b|------------------------------------------------------------------------|
g|--------------------------------------10-10-10--------10-10-10----------|
d|-8--8-8-8--8-8-8--8-8-8-10-10--0--0-0----------0--0-0-------------------|
a|-8--8-8-8--8-8-8--8-8-8-10-10--0--0-0-8--8--8--0--0-0-8--8--8-----------|
e|-8--8-8-8--8-8-8--8-8-8-10-10--0--0-0----------0--0-0-------------------|

interlude (this part's hard to hear so i don't know if it's right
e|------------------------------------------------------------------------|
b|------------------------------------------------------------------------|
g|-7--7-7-7-7--7-7-7--3-3-3/5-5-5-3-3-3/5-5-5-----------------------------|
d|-7--7-7-7-7--7-7-7--3-3-3/5-5-5-3-3-3/5-5-5-----------------------------|
a|-5--5-5-5-5--5-5-5--1-1-1/3-3-3-1-1-1/3-3-3-----------------------------|
e|------------------------------------------------------------------------|

solo (i have no idea, but i think this is the backup)
e|------------------------------------------------------------------------|
b|------------------------------------------------------------------------|
g|-7--7-7--7--7-7--7-10-101010-101010-5-5-5-5--5-5-5--5--5-5-5--5-5-5-----|
d|-7--7-7--7--7-7--7-10-101010-101010-5-5-5-5--5-5-5--5--5-5-5--5-5-5-----|
a|-5--5-5--5--5-5--5-8--8-8-8--8-8-8--3-3-3-3--3-3-3--3--3-3-3--3-3-3-----|
e|------------------------------------------------------------------------|

*-------------
*-last time---
*-------------|
*-8---8-10----|
*-8---8-10----|
*-8---8-10----|

--------------------------------

6.BITTER
Tuning- Drop C

INTRO
E------------------------------------------------------------------------------|
B------------------------------------------------------------------------------|
G------------------------------------------------------------------------------|
D—4--2--6--4--4--2--6--7-------------------------------------------------------|
A—2--0--4--0--2--0--4--0-------------------------------------------------------|
D—2--0--4--0--2--0--4--0-------------------------------------------------------|
PRE-VERSE
E---------------------------------------|
B---------------------------------------|
G---------------------------------------|
D--2-2-0-0-4-4--4-----2-2-0-0-4-4----7--|X2
A--2-2-0-0-4-4--------2-2-0-0-4-4-------|
D--2-2-0-0-4-4--------2-2-0-0-4-4-------|
VERSE
E------------------------------------------------------|
B------------------------------------------------------|
G------------------------------------------------------|X2
D------4-----2-----6-----4------4-----2-----6----7-7---|
A----2-----0-----4-----0------2-----0-----4----0--0-0--|
D--2-----0-----4-----0------2-----0-----4----0---------|
CHORUS
E--------------------------------------------------------------------------------------|
B--------------------------------------------------------------------------------------|
G--------------------------------------------------------------------------------------|X4
D--4-4-4--7-7-7-7--2-2-2--X--X--X--X---------------------------------------------------|
A--4-4-4--7-7-7-7--2-2-2--X--X--X--X---------------------------------------------------|
D--4-4-4--7-7-7-7--2-2-2--X--X--X--X---------------------------------------------------|
OUTRO SAME AS INTRO

------------------------------------

7.PHOTOGRAPH
Tuning- Drop C

Intro/Verse
----------------------------------------------------------------|
----------------------------------------------------------------|
-14--141414p121212h141414p1212----------------------------------|
-0---0-0-0--0-0-0--0-0-0--0-0-----8-888h10-101010p8-888h101010--|
-0---0-0-0--0-0-0--0-0-0--0-0-----8-888-8--8-8-8--8-888-8-8-8---|
----------------------------------8-888-8--8-8-8--8-888-8-8-8---|

----------------------------------------------------------------|
----------------------------------------------------------------|
--14--141414p121212\9-9-9h1010----------------------------------|
--0---0-0-0--0-0-0--0-0-0-0-0-----8-888h10-101010p8-888h101010--|  x4
--0---0-0-0--0-0-0--0-0-0-0-0-----8-888-8--8-8-8--8-888-8-8-8---|
----------------------------------8-888-8--8-8-8--8-888-8-8-8---|

Chorus - Distortion
------------------------------------------|
------------------------------------------|
-------------5-55-------------------------|
-0000--00-00-5-55-5-55-7-77-888888888888--|
-0000--00-00-3-33-5-55-7-77-888888888888--|
-0000--00-00------5-55-7-77-888888888888--|
 pm..

---------------------------------------------------|
---------------------------------------------------|
---------------------------------------------------|
-0000-00-00-55-55-33-33-77-77-5-55-5-55-3-33-3-33--|
-0000-00-00-55-55-33-33-77-77-5-55-5-55-3-33-3-33--|
-0000-00-00-55-55-33-33-77-77-5-55-5-55-3-33-3-33--|
 pm..

Instrumental Part After The Chours - Clean
----------------------------------------------------------------|
----------------------------------------------------------------|
--14--141414p121212\9-9-9h1010----------------------------------|
--0---0-0-0--0-0-0--0-0-0-0-0-----8-888h10-101010p8-888h101010--|
--0---0-0-0--0-0-0--0-0-0-0-0-----8-888-8--8-8-8--8-888-8-8-8---|
----------------------------------8-888-8--8-8-8--8-888-8-8-8---|

Verse - Clean
----------------------------------------------------------------|
----------------------------------------------------------------|
-14--141414p121212h141414p1212----------------------------------|
-0---0-0-0--0-0-0--0-0-0--0-0-----8-888h10-101010p8-888h101010--|
-0---0-0-0--0-0-0--0-0-0--0-0-----8-888-8--8-8-8--8-888-8-8-8---|
----------------------------------8-888-8--8-8-8--8-888-8-8-8---|

----------------------------------------------------------------|
----------------------------------------------------------------|
--14--141414p121212\9-9-9h1010----------------------------------|
--0---0-0-0--0-0-0--0-0-0-0-0-----8-888h10-101010p8-888h101010--|  x4
--0---0-0-0--0-0-0--0-0-0-0-0-----8-888-8--8-8-8--8-888-8-8-8---|
----------------------------------8-888-8--8-8-8--8-888-8-8-8---|

Guitar Part 1 (i dunno what that part would be called) - Distortion
-------------------------------------------------------------|
-------------------------------------------------------------|
-------------------------------------------------------------|
-00-0-033-3-355-5-5-03h53p03p0--00-0-033-3-355-5-5-03h53p03--|
-00-0-033-3-355-5-5-03h53p03p0--00-0-033-3-355-5-5-03h53p03--|
-00-0-033-3-355-5-5-03h53p03p0--00-0-033-3-355-5-5-03h53p03--|
 pm.......................................................

-------------------------------------------------------------|
-------------------------------------------------------------|
-------------------------------------------------------------|
-00-0-033-3-355-5-5-03h53p03p0--00-0-033-3-355-5-5-03h53p03--|
-00-0-033-3-355-5-5-03h53p03p0--00-0-033-3-355-5-5-03h53p03--|
-00-0-033-3-355-5-5-03h53p03p0--00-0-033-3-355-5-5-03h53p03--|
 pm...............................................

Chorus - Distortion
---------------------------------------------|
---------------------------------------------|
---------------------------------------------|
-0000--00-00-10-1010-5-55-7-77-888888888888--|
-0000--00-00-10-1010-5-55-7-77-888888888888--|
-0000--00-00-10-1010-5-55-7-77-888888888888--|
 pm..

---------------------------------------------------|
---------------------------------------------------|
---------------------------------------------------|
-0000-00-00-55-55-33-33-77-77-5-55-5-55-3-33-3-33--|
-0000-00-00-55-55-33-33-77-77-5-55-5-55-3-33-3-33--|
-0000-00-00-55-55-33-33-77-77-5-55-5-55-3-33-3-33--|
 pm..

---------------------------------------------|
---------------------------------------------|
-5555----------------------------------------|
-xxxx--00-00-10-1010-5-55-7-77-888888888888--|
-3333--00-00-10-1010-5-55-7-77-888888888888--|
-------00-00-10-1010-5-55-7-77-888888888888--|


---------------------------------------------------|
---------------------------------------------------|
---------------------------------------------------|
-0000-00-00-55-55-33-33-77-77-5-55-5-55-3-33-3-33--|
-0000-00-00-55-55-33-33-77-77-5-55-5-55-3-33-3-33--|
-0000-00-00-55-55-33-33-77-77-5-55-5-55-3-33-3-33--|
 pm..

Guitar Part 2 (dunno what that would be called either) - Distortion
-------------------------|
-------------------------|
-5/55555\3333/555555555--|
-x/xxxxx\xxxx/xxxxxxxxx--|  x2
-3/55555\3333/555555555--|
-------------------------|

------------------------|
------------------------|
------------------------|
-00-00-33-33-55-555555--|
-00-00-33-33-55-555555--|  x4
-00-00-33-33-55-555555--|

-------------------------------------------------------------|
-------------------------------------------------------------|
-------------------------------------------------------------|
-00-0-033-3-355-5-5-03h53p03p0--00-0-033-3-355-5-5-03h53p03--|
-00-0-033-3-355-5-5-03h53p03p0--00-0-033-3-355-5-5-03h53p03--|
-00-0-033-3-355-5-5-03h53p03p0--00-0-033-3-355-5-5-03h53p03--|
 pm........................................................

-------------------------------------------------------------|
-------------------------------------------------------------|
-------------------------------------------------------------|
-00-0-033-3-355-5-5-03h53p03p0--00-0-033-3-355-5-5-03h53p03--|
-00-0-033-3-355-5-5-03h53p03p0--00-0-033-3-355-5-5-03h53p03--|
-00-0-033-3-355-5-5-03h53p03p0--00-0-033-3-355-5-5-03h53p03--|

Chorus - Distortion
---------------------------------------------|
---------------------------------------------|
---------------------------------------------|
-0000--00-00-10-1010-5-55-7-77-888888888888--|
-0000--00-00-10-1010-5-55-7-77-888888888888--|
-0000--00-00-10-1010-5-55-7-77-888888888888--|
 pm..

---------------------------------------------------|
---------------------------------------------------|
---------------------------------------------------|
-0000-00-00-55-55-33-33-77-77-5-55-5-55-3-33-3-33--|
-0000-00-00-55-55-33-33-77-77-5-55-5-55-3-33-3-33--|
-0000-00-00-55-55-33-33-77-77-5-55-5-55-3-33-3-33--|
 pm..

---------------------------------------------|
---------------------------------------------|
-5555----------------------------------------|
-xxxx--00-00-10-1010-5-55-7-77-888888888888--|
-3333--00-00-10-1010-5-55-7-77-888888888888--|
-------00-00-10-1010-5-55-7-77-888888888888--|


---------------------------------------------------|
---------------------------------------------------|
---------------------------------------------------|
-0000-00-00-55-55-33-33-77-77-5-55-5-55-3-33-3-33--|
-0000-00-00-55-55-33-33-77-77-5-55-5-55-3-33-3-33--|
-0000-00-00-55-55-33-33-77-77-5-55-5-55-3-33-3-33--|
 pm..

Outro
------------------------------|
------------------------------|
------------------------------|
-00-00-1010-1010-00-00-6-5-3--|  x2
-00-00-1010-1010-00-00-6-5-3--|
-00-00-1010-1010-00-00-6-5-3--|
 pm.........................

------------------------------|
------------------------------|
------------------------------|
-00-00-1010-1010-00-00-6-5-3--|  x2
-00-00-1010-1010-00-00-6-5-3--|
-00-00-1010-1010-00-00-6-5-3--|

--------------------------------------

8.3 LEAF LOSER

Don't Know

--------------------------------------

9.STAY
Tuning- Standard

Intro

1 |------------------------------------------|
2 |--------------------------------------1---|
3 |------------------------------2-2-2-2-2---|
4 |---2---2h3-3----0---0h2-2-----3-3-3-3-3---|
5 |-0---0------------------------3-3-3-3-3---|
6 |--------------3---3--------1--1-1-1-1-1---|

Repeat x4


Chorus 1
Note: Playing the standard open F may be easier for some
      than the bar chord, and it also sounds good.

1 |-1--1--1-1-1-0--0--0-0-0-1--1--1-1-1-1--1--1-1-1-|
2 |-0--0--0-0-0-1--1--1-1-1-1--1--1-1-1-0--0--0-0-0-|
3 |-0--0--0-0-0-2--2--2-2-2-2--2--2-2-2-0--0--0-0-0-|
4 |-0--0--0-0-0-2--2--2-2-2-3--3--3-3-3-0--0--0-0-0-|
5 |-2--2--2-2-2-0--0--0-0-0-3--3--3-3-3-2--2--2-2-2-|
6 |-3--3--3-3-3-------------1--1--1-1-1-3--3--3-3-3-|

1 |-1--1--1-1-1-0--0--0-0-0-1--1--1-1-1-1--1--1-1-1-|
2 |-0--0--0-0-0-1--1--1-1-1-1--1--1-1-1-0--0--0-0-0-|
3 |-0--0--0-0-0-2--2--2-2-2-2--2--2-2-2-0--0--0-0-0-|
4 |-0--0--0-0-0-2--2--2-2-2-3--3--3-3-3-0--0--0-0-0-|
5 |-2--2--2-2-2-0--0--0-0-0-3--3--3-3-3-2--2--2-2-2-|
6 |-3--3--3-3-3-------------1--1--1-1-1-3--3--3-3-3-|

Chorus 2
Overdrive

1 |-------------------------------------|
2 |-------------------------------------|
3 |-------------------------------------|
4 |-3--3----5----7--7--7--7-10-10-10-10-|
5 |-3--3----5----7--7--7--7-10-10-10-10-|
6 |-1--1----3----5--5--5--5--8--8--8--8-|

1 |--------------------------------------------|
2 |--------------------------------------------|
3 |--------------------------------------------|
4 |-3--3----5----7-7--7-7--7-7-----------------|
5 |-3--3----5----7-7--7-7--7-7-----------------|
6 |-1--1----3----5-5--5-5--5-5---8-7-5-7-5-7-8-|

This bit first time only:
1 |-------------------------------------|
2 |-------------------------------------|
3 |-------------------------------------|
4 |-3--3----5----7--7--7--7-10-10-10-10-|
5 |-3--3----5----7--7--7--7-10-10-10-10-|
6 |-1--1----3----5--5--5--5--8--8--8--8-|

Interlude

Backing, repeat x2
1 |----------------------------------------|
2 |----------------------------------------|
3 |----------------------------------------|
4 |-3--3----5----7-7-7-7--5-5-5-5--3-3-3-3-|
5 |-3--3----5----7-7-7-7--5-5-5-5--3-3-3-3-|
6 |-1--1----3----5-5-5-5--3-3-3-3--1-1-1-1-|

Lead
1 |--------------------------------------------------------|
2 |--------------------------------------------------------|
3 |------------------------------------------------------5-|
4 |----------------5-7---7-7-7--5-7-5-5-5--7-5-------5-7---|
5 |--------------7-----------------------------8---8-------|
6 |--------------------------------------------------------|

1 |-----------------------------------------------------------------------|
2 |-------------------8--8-8h108-5---5-------6--6-5-6-5--5-6-5------------|
3 |-5---5-7-5-7/8-7/8--------------7---7-5---------------------7-5-7-5----|
4 |---7-----------------------------------------------------------------7-|
5 |-----------------------------------------------------------------------|
6 |-----------------------------------------------------------------------|


Repeat intro x4
Repeat chorus 1
Repeat chrous 2

Second chorus ending
1 |-----------------------------------------------------------------|
2 |-----------------------------------------------------------------|
3 |-----------------------------------------------------------------|
4 |-3--3----5----7--7--7--7-(10)-(10)-(10)-(10)-(10)-(10)-(10)-(10)-|
5 |-3--3----5----7--7--7--7-(10)-(10)-(10)-(10)-(10)-(10)-(10)-(10)-|
6 |-1--1----3----5--5--5--5--(8)--(8)--(8)--(8)--(8)--(8)--(8)--(8)-|

Bridge
1 |----------------------------------------|
2 |----------------------------------------|
3 |----------------------------------------|
4 |-12-12-12-12---3-3-3-3--7-7-7-7-7-7-7-7-|
5 |-12-12-12-12---3-3-3-3--7-7-7-7-7-7-7-7-|
6 |-10-10-10-10---1-1-1-1--5-5-5-5-5-5-5-5-|
Repeat x3

1 |----------------------------------------------------------|
2 |----------------------------------------------------------|
3 |----------------------------------------------------------|
4 |-12-12-12-12---3-3-3-3--7-7-7-7--10-10-10-10--12-12-12-12-|
5 |-12-12-12-12---3-3-3-3--7-7-7-7--10-10-10-10--12-12-12-12-|
6 |-10-10-10-10---1-1-1-1--5-5-5-5---8--8--8--8--10-10-10-10-|

Chorus 3
No overdrive

1 |-------------------------------------|
2 |-------------------------------------|
3 |-2--2----4----6--6--6--6--9--9--9--9-|
4 |-3--3----5----7--7--7--7-10-10-10-10-|
5 |-3--3----5----7--7--7--7-10-10-10-10-|
6 |-1--1----3----5--5--5--5--8--8--8--8-|

1 |-------------------------------------|
2 |-------------------------------------|
3 |-2--2----4----6--6--6--6--6--6--6--6-|
4 |-3--3----5----7--7--7--7--7--7--7--7-|
5 |-3--3----5----7--7--7--7--7--7--7--7-|
6 |-1--1----3----5--5--5--5--5--5--5--5-|

1 |-------------------------------------|
2 |-------------------------------------|
3 |-2--2----4----6--6--6--6--9--9--9--9-|
4 |-3--3----5----7--7--7--7-10-10-10-10-|
5 |-3--3----5----7--7--7--7-10-10-10-10-|
6 |-1--1----3----5--5--5--5--8--8--8--8-|

1 |-------------------------------------|
2 |-------------------------------------|
3 |-2--2----4----6----------------------|
4 |-3--3----5----7----------------------|
5 |-3--3----5----7----------------------|
6 |-1--1----3----5----------------------|

---------------------------------------------

10.WAITING FOR YESTERDAY

Don't Know

---------------------------------------------

11.IN CLOSING
Tuning- Drop C

Intro/Verse
 this uses a ton of delay, so if you dont have a delay pedal, just repeat some of the notes.
 |-------------------------------------------------------------------------------------|
 |-------------------------------------------------------------------------------------|
 |---------------5---5-----------------------------------------------------------------|
 |---------3---------------------------------------------------------------------------|
 |-5---5-5---3-------------------------------------------------------------------------|
 |-------------------------------------------------------------------------------------|

 Chorus
 |-------------------------------------------------------------------------------------|
 |-------------------------------------------------------------------------------------|
 |--------5---5-5-5-5-8--8--8-8-8-8---------5---5-5-5-5--------------------------------|
 |-0--0-0-5---5-5-5-5-8--8--8-8-8-8--0--0-0-5---5-5-5-5-6--6--6-6-6-6------------------|
 |-0--0-0-3---3-3-3-3-6--6--6-6-6-6--0--0-0-3---3-3-3-3-6--6--6-6-6-6------------------|
 |-0--0-0----------------------------0--0-0-------------6--6--6-6-6-6------------------|

 Interlude
 |-------------------------------------------------------------------------------------|
 |-------------------------------------------------------------------------------------|
 |-7------7------7------7------9------9------9------9------10------10-----10-----10----|
 |-------------------------------------------------------------------------------------|
 |-5--x-x-5--x-x-5--x-x-5--x-x-7--x-x-7--x-x-7--x-x-7--x-x-8--x-x--8--x-x-8--x-x-8--x-x|
 |-------------------------------------------------------------------------------------|

 |-------------------------------------------------------------------------------------|
 |-------------------------------------------------------------------------------------|
 |-12------12------12------12----------------------------------------------------------|
 |-------------------------------------------------------------------------------------|
 |-10--x-x-10--x-x-10--x-x-10-x-x------------------------------------------------------|
 |-------------------------------------------------------------------------------------|

 Outro
 |-------------------------------------------------------------------------------------|
 |-------------------------------------------------------------------------------------|
 |--------5---5-5-5-5------------------------------------------------------------------|
 |-0--0-0-5---5-5-5-5------------------------------------------------------------------|
 |-0--0-0-3---3-3-3-3------------------------------------------------------------------|
 |-0--0-0------------------------------------------------------------------------------|


ENJOY!!!!
comments
print report bad tab
3 comments total.
0 reply
FerriuS wrote on January 31 2005, 12:00 am

This is AGAIN stupid compilation of stolen tabs made by the biggest douche in the universe >> ANDREW ZARA <<, go and eat your poo, ***. Leave my fav. bands alone!

0 reply
Andrew Zara wrote on January 31 2005, 12:00 am

Again,you F***** D**** I gave credit to those people.FerriuS IS THE BIGGEST DOUCHE IN THE UNIVERSE!!!LETS SEE SOME OF YOUR TABS D****

0 reply
guitarboy34 wrote on March 12 2008, 11:16 pm

Ferrius-on the top he gives credit to the other tabbers, and who really cares, personally I just want accurate tabs from this good band! they should have more tabbed...Zara you should tab out thier new CD!

I want to post or [tab]
guest
You may want to rate the tab now too:
select rating
Please do not post tabs as comments. Select "correction" instead!