Oops, an error
Loading. Please wait.

A Beautiful Lie Tab

ver1
ver1
More versions @911Tabs.com
26,075 views 15 this week
1 commentread comment
1 2 3 4 5
excellent!
x 5
Autoscroll
+/-
esc
set tempo
stop
Hey! There's an official Ultimate Guitar app which is ideal
for learning songs when you're away from computer. Get the app
WARNING: You are trying to view
                                    content from Ultimate-Guitar.com
                                    in an unauthorized application,
                                    which is prohibited.

                                    Please use an official Ultimate
                                    Guitar Tabs application for iPhone,
                                    iPad or Android to access legitimate
                                    chords, guitar, bass, and drum tabs
                                    from Ultimate-Guitar.com database.

                                    Type "ultimate guitar tabs" in Apple
                                    App Store's or Android Market's
                                    search to find the application.
hey 
i didnt do any of the tabs i just put them together to make the album
enjoy!



--------------------------------attack---------------------------------------
Standard Tuning :)


Intro

Guitar 1

e|--------------------------------------------------|
B|----------------------------------------------13--|
G|-------12----13-12-------12----10-12--------------|
D|-------------------10-------------------10--------|
A|-11-11----11----------11----11-------11----11-----|
E|--------------------------------------------------|

e|--------------------------------------------------|
B|----------------------------------------------13--|
G|-------12----13-12-------12----10-12--------------|
D|-------------------10-------------------10--------|
A|-10-10----10----------10----10-------10----10-----|
E|--------------------------------------------------|

e|----------------------------------8---------------|
B|-----8---9-8------8------8------------------------|
G|--------------------------------------------------|
D|-------------10-------10-----10-------------------|  X2
A|-8-8---8--------8---8------8----8-----------------|
E|--------------------------------------------------|

G1 carrys on playing this

Guitar 2 silent

comes in at about 0:12 on ''suffer''

e|--------------------------------------------|
B|--------------------------------------------|
G|--13-13-13-13-13-13--12-12-12-12-12-12-12-12|
D|---x--x--x--x--x--x---x--x--x--x--x--x--x--x|
A|--11-11-11-11-11-11--10-10-10-10-10-10-10-10|
E|--------------------------------------------|

  suffer, be broken    get tired or wasted

e|--------------------------------------------|
B|--------------------------------------------|
G|-13-13-13-13-13-13-13-13-13-13-13-13-13-13--|
D|--x--x--x--x--x--x--x--x--x--x--x--x--x--x--|
A|-11-11-11-11-11-11-11-11-11-11-11-11-11-11--|
E|--------------------------------------------|

  Surrender to nothing Or give up what I started

e|--------------------------------------------|
B|--------------------------------------------|
G|--13-13--x-13-13--x--12-12--x-12-12--x-12-12|
D|---x--x--x--x--x--x---x--x--x--x--x--x--x--x|
A|--11-11--x-11-11--x--10-10--x-10-10--x-10-10|
E|--------------------------------------------|
(find a strumming pattern you like here with palms muts if you want)
  And stop this      From end to beginning

e|--------------------------------------------|
B|--------------------------------------------|
G|--13-13-13-13-13-13-------------------------|
D|---x--x--x--x--x--x-------------------------|
A|--11-11-11-11-11-11-------------------------|
E|--------------------------------------------|

A new day is coming    And I am finally free

Both Guitars

e|--------------------------------------------|
B|--------------------------------------------|
G|--6-6-6-6-6-6--8-8-8-8-8-8--10-10-10-10-10--|
D|--x-x-x-x-x-x--x-x-x-x-x-x---x--x--x--x--x--|
A|--4-4-4-4-4-4--6-6-6-6-6-6---8--8--8--8--8--|
E|--------------------------------------------|

   Run Away Run Away I'll Attack Run Away

e|--------------------------------------------|
B|--------------------------------------------|
G|--5-5-5-5-5-5--13-13-13--12-12-12-----------|
D|--x-x-x-x-x-x---x--x--x---x--x--x-----------|
A|--3-3-3-3-3-3--11-11-11--10-10-10-----------|
E|--------------------------------------------|

   Run Away Run Away  Go Change Yourself

e|--------------------------------------------|
B|--------------------------------------------|
G|--6-6-6-6-6-6--8-8-8-8-8-8--10-10-10-10-10--|
D|--x-x-x-x-x-x--x-x-x-x-x-x---x--x--x--x--x--|
A|--4-4-4-4-4-4--6-6-6-6-6-6---8--8--8--8--8--|
E|--------------------------------------------|

   Run Away Run Away Run Away I'll Attack......

e|--------------------------------------------|
B|--------------------------------------------|
G|--17-17-17-17-17-17-17----------------------|
D|---x--x--x--x--x--x--x----------------------|
A|--15-15-15-15-15-15-15----------------------|
E|--------------------------------------------|

   WOOAAAAHHHH (  :)  )

G1

e|--------------------------------------------------|
B|----------------------------------------------13--|
G|-------12----13-12-------12----10-12--------------|
D|-------------------10-------------------10--------|
A|-11-11----11----------11----11-------11----11-----|
E|--------------------------------------------------|

and then plays the intro riff underneath

e|--------------------------------------------|
B|--------------------------------------------|
G|--13-13-13-13-13-13--12-12-12-12-12-12-12-12|
D|---x--x--x--x--x--x---x--x--x--x--x--x--x--x|
A|--11-11-11-11-11-11--10-10-10-10-10-10-10-10|
E|--------------------------------------------|

  kept you forever    But we had to sever

e|--------------------------------------------|
B|--------------------------------------------|
G|-13-13-13-13-13-13-13-13--------------------|
D|--x--x--x--x--x--x--x--x--------------------|
A|-11-11-11-11-11-11-11-11--------------------|
E|--------------------------------------------|

  It ended for both of us   Faster than a . . .


e|--------------------------------------------|
B|--------------------------------------------|
G|--13-13--x-13-13--x--12-12--x-12-12--x-12-12|
D|---x--x--x--x--x--x---x--x--x--x--x--x--x--x|
A|--11-11--x-11-11--x--10-10--x-10-10--x-10-10|
E|--------------------------------------------|
(find a strumming pattern you like here with palms muts if you want)
 Kill off this thinking It's starting to sink in

e|--------------------------------------------|
B|--------------------------------------------|
G|---x-13-13--x-13-13---x-x-13-13-x-x-13-13---|
D|---x--x--x--x--x--x---x-x--x--x-x-x--x--x---|
A|---x-11-11--x-11-11---x-x-11-11-x-x-11-11---|
E|--------------------------------------------|

   I'm losing control now     Without you

e|--------------------------------------------|
B|----13-13--13-13----------------------------|
G|----13-13--13-13----------------------------|
D|-----x--x---x--x----------------------------|
A|----11-11--11-11----------------------------|
E|--------------------------------------------|

   I can finally see.

Both Guitars

e|--------------------------------------------|
B|--------------------------------------------|
G|--6-6-6-6-6-6--8-8-8-8-8-8--10-10-10-10-10--|
D|--x-x-x-x-x-x--x-x-x-x-x-x---x--x--x--x--x--|
A|--4-4-4-4-4-4--6-6-6-6-6-6---8--8--8--8--8--|
E|--------------------------------------------|

   Run Away Run Away I'll Attack Run Away

e|--------------------------------------------|
B|--------------------------------------------|
G|--5-5-5-5-5-5--13-13-13--12-12-12-----------|
D|--x-x-x-x-x-x---x--x--x---x--x--x-----------|
A|--3-3-3-3-3-3--11-11-11--10-10-10-----------|
E|--------------------------------------------|

   Run Away Run Away  Go Change Yourself

e|--------------------------------------------|
B|--------------------------------------------|
G|--6-6-6-6-6-6--8-8-8-8-8-8--10-10-10-10-10--|
D|--x-x-x-x-x-x--x-x-x-x-x-x---x--x--x--x--x--|
A|--4-4-4-4-4-4--6-6-6-6-6-6---8--8--8--8--8--|
E|--------------------------------------------|

   Run Away Run Away Run Away I'll Attack......

e|--------------------------------------------|
B|--------------------------------------------|
G|--17-17-17-17-17-17-17----------------------|
D|---x--x--x--x--x--x--x----------------------|
A|--15-15-15-15-15-15-15----------------------|
E|--------------------------------------------|

   WOOAAAAHHHH (  :)  )

Play intro on its own (no guitar 2)

For:

Your promises
They look like lies
Your honesty
Like a back that hides a knife
I promise you
I promise you
I am finally free   (no guitars this line)


go back to chorus just above

but at the end of the 1st chorus play this

e|--------------------------------------------|
B|--------------------------------------------|
G|--12-12-12-12-12-12-12----------------------|
D|---x--x--x--x--x--x--x----------------------|
A|--10-10-10-10-10-10-10----------------------|
E|--------------------------------------------|

   WOOAAAAHHHH (  :)  )

(for a 2nd guitar)+ this is for the 2nd time around, words dnt really coincide because 
singing over himself .... a lot

e|--------------------------------------------|
B|--12--12--12--12--12--12--12--12--12--12----|
G|---x---x---x---x---x---x---x---x---x---x----|
D|---9---9---9---9---9---9---9---9---9---9----|
A|--------------------------------------------|
E|--------------------------------------------|

   Run Away Run Away I'll Attack Run Away

e|--------------------------------------------|
B|--13--13--13--13--13--13--13---11--11--11---|
G|---x---x---x---x---x---x---x----x---x---x---|
D|--10--10--10--10--10--10--10----8---8---8---|
A|--------------------------------------------|
E|--------------------------------------------|

   Run Away Run Away  I'll Attack Run Away

e|--------------------------------------------|
B|-11--11--11--11---9-9-9-9-9-9--8-8-8-8-8-8--|
G|--x---x---x---x---x-x-x-x-x-x--x-x-x-x-x-x--|
D|--8---8---8---8---6-6-6-6-6-6--5-5-5-5-5-5--|
A|--------------------------------------------|
E|--------------------------------------------|

   Run Away Run Away Run Away I'll Attack......

e|--------------------------------------------|
B|--13--13--13--13--13--13--------------------|
G|---x---x---x---x---x---x--------------------|
D|--10--10--10--10--10--10--------------------|
A|--------------------------------------------|
E|--------------------------------------------|

then end with the intro basically over this:

Your promises
They look like lies
Your honesty
Like a back that hides a knife
I promise you
I promise you

-----------------------------A beautiful lie---------------------------------
Standard Tuning

e:----------------------------------------------------------------]
B:----------------------------------------------------------------]
G:-77777-77777-777-77777-77777-777-99999-99999-999-99999-99999-999]
D:-77777-77777-777-77777-77777-777-99999-99999-999-99999-99999-999]
A:-55555-55555-555-55555-55555-555-77777-77777-777-77777-77777-777]
E:-00000-00000-000-00000-00000-000-00000-00000-000-00000-00000-000]

e:----------------------------------------------------------------]
B:----------------------------------------------------------------]
G:----------------------------------------------------------------]
D:-55555-55555-555-55555-55555-555-77777-77777-777-77777-77777-777]
A:-33333-33333-333-33333-33333-333-77777-77777-777-77777-77777-777]
E:-00000-00000-000-00000-00000-000-00000-00000-000-00000-00000-000]

-----------------------------the kill----------------------------------------
1st Verse-

   C                                    D
E|-------------------------------------------------------------------------|
B|-------------------------------------------------------------------------|
G|------0--------0--------0--------0---------0--------0--------0--------0--|
D|-5--5---5-5--5---5-5--5---5-5--5---7--7--7---7-7--7---7-7--7---7-7--7---7|
A|-3--3-----3--3-----3--3-----3--3------5--5-----5--5-----5--5-----5--5----|
E|-------------------------------------------------------------------------|
                 What if I wanted to break,     laugh it all off in your

   E                                    B
E|-------------------------------------------------------------------------|
B|-------------------------------------------------------------------------|
G|------0--------0--------0--------0---------0--------0--------0--------0--|
D|-9--9---9-9--9---9-9--9---9-9--9---9--4--4---4-4--4---4-4--4---4-4--4---2|
A|-7--7-----7--7-----7--7-----7--7------2--2-----2--2-----2--2-----2--2----|
E|-------------------------------------------------------------------------|
            face?              What would you do?

   C                                    D
E|-------------------------------------------------------------------------|
B|-------------------------------------------------------------------------|
G|------0--------0--------0--------0---------0--------0--------0--------0--|
D|-5--5---5-5--5---5-5--5---5-5--5---7--7--7---7-7--7---7-7--7---7-7--7---7|
A|-3--3-----3--3-----3--3-----3--3------5--5-----5--5-----5--5-----5--5----|
E|-------------------------------------------------------------------------|
                 What if I fell to the floor.    Couldn't take this

   E                                    B
E|-------------------------------------------------------------------------|
B|-------------------------------------------------------------------------|
G|------0--------0--------0--------0---------0--------0--------0--------0--|
D|-9--9---9-9--9---9-9--9---9-9--9---9--4--4---4-4--4---4-4--4---4-4--4---2|
A|-7--7-----7--7-----7--7-----7--7------2--2-----2--2-----2--2-----2--2----|
E|-------------------------------------------------------------------------|
          anymore?                       What would you do, do, do?

Chorus-

   C                                   D
E|-------------------------------------------------------------------------|
B|-------------------------------------------------------------------------|
G|-5-5-5-5-5-5-5-5-5-5-5-5-5-5-5-5-5-5-7-7-7-7-7-7-7-7-7-7-7-7-7-7-7-7-7-7-|
D|-5-5-5-5-5-5-5-5-5-5-5-5-5-5-5-5-5-5-7-7-7-7-7-7-7-7-7-7-7-7-7-7-7-7-7-7-|
A|-3-3-3-3-3-3-3-3-3-3-3-3-3-3-3-3-3-3-5-5-5-5-5-5-5-5-5-5-5-5-5-5-5-5-5-5-|
E|-------------------------------------------------------------------------|
    Come       break       me      down     bury me,  bury me

   E                                   B
E|-------------------------------------------------------------------------|
B|-------------------------------------------------------------------------|
G|-9-9-9-9-9-9-9-9-9-9-9-9-9-9-9-9-9-9-4-4-4-4-4-4-4-4-4-4-4-4-4-4-4-4-4-4-|
D|-9-9-9-9-9-9-9-9-9-9-9-9-9-9-9-9-9-9-4-4-4-4-4-4-4-4-4-4-4-4-4-4-4-4-4-4-|
A|-7-7-7-7-7-7-7-7-7-7-7-7-7-7-7-7-7-7-2-2-2-2-2-2-2-2-2-2-2-2-2-2-2-2-2-2-|
E|-------------------------------------------------------------------------|
    I    am    finished    with     you

2nd Verse-

 (PULL-OFFS)
    G E  C B  C B  G E  C B  C B  G E  C B  C B   G E  C B  C B
E|-------------------------------------------------------------------------|
B|-------------------------------------------------------------------------|
G|-12-9-----------12-9-----------12-9------------12-9----------------------|
D|------10-9-10-9------10-9-10-9------10-9-10-9-------10-9-10-9------------|
A|-------------------------------------------------------------------------|
E|-------------------------------------------------------------------------|
                  What if I wanted to fight,

   B  C B  G B  B  C B  G B  B  C B  G B  B  C B  G
E|-------------------------------------------------------------------------|
B|-------------------------------------------------------------------------|
G|--------12-----------12-----------12-----------12------------------------|
D|-9-10-9----9--9-10-9----9--9-10-9----9--9-10-9---------------------------|
A|-------------------------------------------------------------------------|
E|-------------------------------------------------------------------------|
                  Beg for the rest of my life?

    G  E D  B C B  G  E D  B C B  G  E D  B C B   G  E D  B C B
E|-------------------------------------------------------------------------|
B|-------------------------------------------------------------------------|
G|-12-9-----------12-9-----------12-9------------12-9----------------------|
D|------10-9-10-9------10-9-10-9------10-9-10-9-------10-9-10-9------------|
A|-------------------------------------------------------------------------|
E|-------------------------------------------------------------------------|
                     What would you do?

   B  C B  G B  B  C B  G B  B  C B  A B  B  C B  B
E|-------------------------------------------------------------------------|
B|----------------------------------10-----------12------------------------|
G|--------12-----------12--------------------------------------------------|
D|-9-10-9----9--9-10-9----9--9-10-9----9--9-10-9---------------------------|
A|-------------------------------------------------------------------------|
E|-------------------------------------------------------------------------|
                      (do, do)


    G E  C B  C B  G E  C B  C B  G E  C B  C B   G E  C B  C B
E|-------------------------------------------------------------------------|
B|-------------------------------------------------------------------------|
G|-12-9-----------12-9-----------12-9------------12-9----------------------|
D|------10-9-10-9------10-9-10-9------10-9-10-9-------10-9-10-9------------|
A|-------------------------------------------------------------------------|
E|-------------------------------------------------------------------------|
   You say you wanted more

   B  C B  G B  B  C B  G B  B  C B  G B  B  C B  G
E|-------------------------------------------------------------------------|
B|-------------------------------------------------------------------------|
G|--------12-----------12-----------12-----------12------------------------|
D|-9-10-9----9--9-10-9----9--9-10-9----9--9-10-9---------------------------|
A|-------------------------------------------------------------------------|
E|-------------------------------------------------------------------------|
   What are you waiting for?

    G  E D  B C B  G  E D  B C B  G  E D  B C B   G  E D  B C B
E|-------------------------------------------------------------------------|
B|-------------------------------------------------------------------------|
G|-12-9-----------12-9-----------12-9------------12-9----------------------|
D|------10-9-10-9------10-9-10-9------10-9-10-9-------10-9-10-9------------|
A|-------------------------------------------------------------------------|
E|-------------------------------------------------------------------------|
    I'm not running from

   B  C B  G B  B  C B  G B  B  C B  A B  B  C B  B
E|-------------------------------------------------------------------------|
B|----------------------------------10-----------12------------------------|
G|--------12-----------12--------------------------------------------------|
D|-9-10-9----9--9-10-9----9--9-10-9----9--9-10-9---------------------------|
A|-------------------------------------------------------------------------|
E|-------------------------------------------------------------------------|
    you (from you)

2nd Chorus-

   C                                   D
E|-------------------------------------------------------------------------|
B|-------------------------------------------------------------------------|
G|-5-5-5-5-5-5-5-5-5-5-5-5-5-5-5-5-5-5-7-7-7-7-7-7-7-7-7-7-7-7-7-7-7-7-7-7-|
D|-5-5-5-5-5-5-5-5-5-5-5-5-5-5-5-5-5-5-7-7-7-7-7-7-7-7-7-7-7-7-7-7-7-7-7-7-|
A|-3-3-3-3-3-3-3-3-3-3-3-3-3-3-3-3-3-3-5-5-5-5-5-5-5-5-5-5-5-5-5-5-5-5-5-5-|
E|-------------------------------------------------------------------------|
    Come       break       me      down     bury me,  bury me

   E                                   B
E|-------------------------------------------------------------------------|
B|-------------------------------------------------------------------------|
G|-9-9-9-9-9-9-9-9-9-9-9-9-9-9-9-9-9-9-4-4-4-4-4-4-4-4-4-4-4-4-4-4-4-4-4-4-|
D|-9-9-9-9-9-9-9-9-9-9-9-9-9-9-9-9-9-9-4-4-4-4-4-4-4-4-4-4-4-4-4-4-4-4-4-4-|
A|-7-7-7-7-7-7-7-7-7-7-7-7-7-7-7-7-7-7-2-2-2-2-2-2-2-2-2-2-2-2-2-2-2-2-2-2-|
E|-------------------------------------------------------------------------|
    I    am    finished    with     you

   C                                   D
E|-------------------------------------------------------------------------|
B|-------------------------------------------------------------------------|
G|-5-5-5-5-5-5-5-5-5-5-5-5-5-5-5-5-5-5-7-7-7-7-7-7-7-7-7-7-7-7-7-7-7-7-7-7-|
D|-5-5-5-5-5-5-5-5-5-5-5-5-5-5-5-5-5-5-7-7-7-7-7-7-7-7-7-7-7-7-7-7-7-7-7-7-|
A|-3-3-3-3-3-3-3-3-3-3-3-3-3-3-3-3-3-3-5-5-5-5-5-5-5-5-5-5-5-5-5-5-5-5-5-5-|
E|-------------------------------------------------------------------------|
    Look   in    my    eyes   you're    killing me,  killing me

   E                                   B
E|-------------------------------------------------------------------------|
B|-------------------------------------------------------------------------|
G|-9-9-9-9-9-9-9-9-9-9-9-9-9-9-9-9-9-9-4-4-4-4-4-4-4-4-4-4-4-4-4-4-4-4-4-4-|
D|-9-9-9-9-9-9-9-9-9-9-9-9-9-9-9-9-9-9-4-4-4-4-4-4-4-4-4-4-4-4-4-4-4-4-4-4-|
A|-7-7-7-7-7-7-7-7-7-7-7-7-7-7-7-7-7-7-2-2-2-2-2-2-2-2-2-2-2-2-2-2-2-2-2-2-|
E|-------------------------------------------------------------------------|
    All   I    wanted     was    you

Bridge-

   A           B           E
E|-------------------------------------------------------------------------|
B|-------------------------------------------------------------------------|
G|-2-2-2-2-2-2-4-4-4-4-4-4-9-9-9-9-9-9-9-9-9-9-9-9-9-9-9-9-9-9-9-9-9-9-9-9-|
D|-2-2-2-2-2-2-4-4-4-4-4-4-9-9-9-9-9-9-9-9-9-9-9-9-9-9-9-9-9-9-9-9-9-9-9-9-|
A|-0-0-0-0-0-0-2-2-2-2-2-2-7-7-7-7-7-7-7-7-7-7-7-7-7-7-7-7-7-7-7-7-7-7-7-7-|
E|-------------------------------------------------------------------------|
       I tried to be someone else,  but nothing seemed to change

   C                       D                       E
E|-------------------------------------------------------------------------|
B|-------------------------------------------------------------------------|
G|-5-5-5-5-5-5-5-5-5-5-5-5-7-7-7-7-7-7-7-7-7-7-7-7-9-9-9-9-9-9-9-9-9-9-9-9-|
D|-5-5-5-5-5-5-5-5-5-5-5-5-7-7-7-7-7-7-7-7-7-7-7-7-9-9-9-9-9-9-9-9-9-9-9-9-|
A|-3-3-3-3-3-3-3-3-3-3-3-3-5-5-5-5-5-5-5-5-5-5-5-5-7-7-7-7-7-7-7-7-7-7-7-7-|
E|-------------------------------------------------------------------------|
         I know now,                this is who I really am inside

   C                       D                       E
E|-------------------------------------------------------------------------|
B|-------------------------------------------------------------------------|
G|-5-5-5-5-5-5-5-5-5-5-5-5-7-7-7-7-7-7-7-7-7-7-7-7-9-9-9-9-9-9-9-9-9-9-9-9-|
D|-5-5-5-5-5-5-5-5-5-5-5-5-7-7-7-7-7-7-7-7-7-7-7-7-9-9-9-9-9-9-9-9-9-9-9-9-|
A|-3-3-3-3-3-3-3-3-3-3-3-3-5-5-5-5-5-5-5-5-5-5-5-5-7-7-7-7-7-7-7-7-7-7-7-7-|
E|-------------------------------------------------------------------------|
         Finally found myself,                     fighting for a chance

   C                       D                       E
E|-------------------------------------------------------------------------|
B|-------------------------------------------------------------------------|
G|-5-5-5-5-5-5-5-5-5-5-5-5-7-7-7-7-7-7-7-7-7-7-7-7-9-9-9-9-9-9-9-9-9-9-9-9-|
D|-5-5-5-5-5-5-5-5-5-5-5-5-7-7-7-7-7-7-7-7-7-7-7-7-9-9-9-9-9-9-9-9-9-9-9-9-|
A|-3-3-3-3-3-3-3-3-3-3-3-3-5-5-5-5-5-5-5-5-5-5-5-5-7-7-7-7-7-7-7-7-7-7-7-7-|
E|-------------------------------------------------------------------------|
        I know now,                               this is who I really am

Break-

   E
E|-------------------------------------------------------------------------|
B|-------------------------------------------------------------------------|
G|-------------------------------------------------------------------------|
D|-------------------------------------------------------------------------|
A|-7-7-7-7-7-7-7-7-7-7-7-7-7-7-7-7-7-7-7-7-7-7-7-7-7-7-7-7-7-7-7-7-7-7-7-7-|
E|-------------------------------------------------------------------------|
   (wailing) AH!

   B                 A              G
E|-------------------------------------------------------------------------|
B|-------------------------------------------------------------------15----|
G|-16-16-16-16-16-16-14-14-14-14-14-12-12-12-12-12-16-14-16-14-16-14----14-|
D|-------------------------------------------------------------------------|
A|-14-14-14-14-14-14-12-12-12-12-12-10-10-10-10-10-------------------------|
E|-------------------------------------------------------------------------|


3nd Chorus-

      C                                   D
E|-------------------------------------------------------------------------|
B|-------------------------------------------------------------------------|
G|-5-5-5-5-5-5-5-5-5-5-5-5-5-5-5-5-5-5-7-7-7-7-7-7-7-7-7-7-7-7-7-7-7-7-7-7-|
D|-5-5-5-5-5-5-5-5-5-5-5-5-5-5-5-5-5-5-7-7-7-7-7-7-7-7-7-7-7-7-7-7-7-7-7-7-|
A|-3-3-3-3-3-3-3-3-3-3-3-3-3-3-3-3-3-3-5-5-5-5-5-5-5-5-5-5-5-5-5-5-5-5-5-5-|
E|-------------------------------------------------------------------------|
    Come       break       me      down     bury me,  bury me

   E                                   B
E|-------------------------------------------------------------------------|
B|-------------------------------------------------------------------------|
G|-9-9-9-9-9-9-9-9-9-9-9-9-9-9-9-9-9-9-4-4-4-4-4-4-4-4-4-4-4-4-4-4-4-4-4-4-|
D|-9-9-9-9-9-9-9-9-9-9-9-9-9-9-9-9-9-9-4-4-4-4-4-4-4-4-4-4-4-4-4-4-4-4-4-4-|
A|-7-7-7-7-7-7-7-7-7-7-7-7-7-7-7-7-7-7-2-2-2-2-2-2-2-2-2-2-2-2-2-2-2-2-2-2-|
E|-------------------------------------------------------------------------|
    I    am    finished    with     you,   you,   you

   C                                   D
E|-------------------------------------------------------------------------|
B|-------------------------------------------------------------------------|
G|-5-5-5-5-5-5-5-5-5-5-5-5-5-5-5-5-5-5-7-7-7-7-7-7-7-7-7-7-7-7-7-7-7-7-7-7-|
D|-5-5-5-5-5-5-5-5-5-5-5-5-5-5-5-5-5-5-7-7-7-7-7-7-7-7-7-7-7-7-7-7-7-7-7-7-|
A|-3-3-3-3-3-3-3-3-3-3-3-3-3-3-3-3-3-3-5-5-5-5-5-5-5-5-5-5-5-5-5-5-5-5-5-5-|
E|-------------------------------------------------------------------------|
    Look   in    my    eyes   you're    killing me,  killing me

   E                                   B
E|-------------------------------------------------------------------------|
B|-------------------------------------------------------------------------|
G|-9-9-9-9-9-9-9-9-9-9-9-9-9-9-9-9-9-9-4-4-4-4-4-4-4-4-4-4-4-4-4-4-4-4-4-4-|
D|-9-9-9-9-9-9-9-9-9-9-9-9-9-9-9-9-9-9-4-4-4-4-4-4-4-4-4-4-4-4-4-4-4-4-4-4-|
A|-7-7-7-7-7-7-7-7-7-7-7-7-7-7-7-7-7-7-2-2-2-2-2-2-2-2-2-2-2-2-2-2-2-2-2-2-|
E|-------------------------------------------------------------------------|
    All   I    wanted     was    you
   C                                 D
E|-------------------------------------------------------------------------|
B|-------------------------------------------------------------------------|
G|-5-5-5-5-5-5-5-5-5-5-5-5-5-5-5-5-5-5-7-7-7-7-7-7-7-7-7-7-7-7-7-7-7-7-7-7-|
D|-5-5-5-5-5-5-5-5-5-5-5-5-5-5-5-5-5-5-7-7-7-7-7-7-7-7-7-7-7-7-7-7-7-7-7-7-|
A|-3-3-3-3-3-3-3-3-3-3-3-3-3-3-3-3-3-3-5-5-5-5-5-5-5-5-5-5-5-5-5-5-5-5-5-5-|
E|-------------------------------------------------------------------------|
    Come     break    me    down,    break    me    down,

   E                                 B
E|-------------------------------------------------------------------------|
B|-------------------------------------------------------------------------|
G|-9-9-9-9-9-9-9-9-9-9-9-9-9-9-9-9-9-9-4-4-4-4-4-4-4-4-4-4-4-4-4-4-4-4-4-4-|
D|-9-9-9-9-9-9-9-9-9-9-9-9-9-9-9-9-9-9-4-4-4-4-4-4-4-4-4-4-4-4-4-4-4-4-4-4-|
A|-7-7-7-7-7-7-7-7-7-7-7-7-7-7-7-7-7-7-2-2-2-2-2-2-2-2-2-2-2-2-2-2-2-2-2-2-|
E|-------------------------------------------------------------------------|
    Break   me   down


Outro-

   G E  C B  C B  G E  C B  C B  G E  C B  C B   G E  C B  C B
E|-------------------------------------------------------------------------|
B|-------------------------------------------------------------------------|
G|-12-9-----------12-9-----------12-9------------12-9----------------------|
D|------10-9-10-9------10-9-10-9------10-9-10-9-------10-9-10-9------------|
A|-------------------------------------------------------------------------|
E|-------------------------------------------------------------------------|
  (You say you wanted more) What if I wanted to break?

   B  C B  G B  B  C B  G B  B  C B  G B  B  C B  G
E|-------------------------------------------------------------------------|
B|-------------------------------------------------------------------------|
G|--------12-----------12-----------12-----------12------------------------|
D|-9-10-9----9--9-10-9----9--9-10-9----9--9-10-9---------------------------|
A|-------------------------------------------------------------------------|
E|-------------------------------------------------------------------------|
  (What are you waiting for?)

    G  E D  B C B  G  E D  B C B  G  E D  B C B   G  E D  B C B
E|-------------------------------------------------------------------------|
B|-------------------------------------------------------------------------|
G|-12-9-----------12-9-----------12-9------------12-9----------------------|
D|------10-9-10-9------10-9-10-9------10-9-10-9-------10-9-10-9------------|
A|-------------------------------------------------------------------------|
E|-------------------------------------------------------------------------|
  (I'm not running from you)  What if I?  (What if I?)

   B  C B  G B  B  C B  G B  B  C B  A B  B  C B  B
E|-------------------------------------------------------------------------|
B|----------------------------------10-----------12------------------------|
G|--------12-----------12--------------------------------------------------|
D|-9-10-9----9--9-10-9----9--9-10-9----9--9-10-9---------------------------|
A|-------------------------------------------------------------------------|
E|-------------------------------------------------------------------------|
  (What if I?  What if I?  What if I?)

------------------------------Was it a dream?--------------------------------
[Intro/Verse] Guitar 1 [Tomo]  x4
e|-----------------|-----------------|-----------------|-----------------|
b|-----------------|-----------------|-----------------|-----------------|
g|-----------------|-----------------|-----------------|-----------------|
d|-----2---3---2---|-----5------5----|-----2---3---2---|-----5------7----|
a|-0-0---0---0---0-|-3-3----3-3------|-0-0---0---0---0-|-3-3----5-5------|
D|-----------------|-----------------|-----------------|-----------------|
 
e|-----------------|-----------------|-----------------|-----------------|
b|-----------------|-----------------|-----------------|-----------------|
g|-----------------|-----------------|-----------------|-----------------|
d|-----2---3---2---|-----5------5----|-----5------5----|-----9------9/10-|
a|-0-0---0---0---0-|-3-3----3-3------|-----------------|/7-7----7-7------|
D|-----------------|-----------------|-5-5----5-5------|-----------------|

[Chorus] Guitar 1 [Tomo]
e|-----------------|-----------------|-----------------|-----------------|
b|-----------------|-----------------|-----------------|-----------------|
g|-5---------------|-7---------------|-----------------|-9---------------|
d|-5---------------|-7---------------|-7---------------|-9---------------|
a|-3---------------|-5---------------|-7---------------|-7---------------|
D|-----------------|-----------------|-7---------------|-----------------|
 
e|-----------------|-----------------|-----------------|-----------------|
b|-----------------|-----------------|-----------------|-----------------|
g|-5---------------|-7---------------|-----------------|-----------------|
d|-5---------------|-7---------------|-----------------|-----------------|
a|-3---------------|-5---------------|-----------------|-----------------|
D|-----------------|-----------------|-----------------|-----------------|

[Verse] Guitar 1 [Tomo]  x4 [variations on end]
e|-----------------|-----------------|-----------------|-----------------|
b|-----------------|-----------------|-----------------|-----------------|
g|-----------------|-----------------|-----------------|-----------------|
d|-----2---3---2---|-----5------5----|-----2---3---2---|-----5------7----|
a|-0-0---0---0---0-|-3-3----3-3------|-0-0---0---0---0-|-3-3----5-5------|
D|-----------------|-----------------|-----------------|-----------------|
 
e|-----------------|-----------------|-----------------|-----------------|
b|-----------------|-----------------|-----------------|-----------------|
g|-----------------|-----------------|-----------------|-----------------|
d|-----2---3---2---|-----5------5----|-----5------5----|-----9------9/10-|
a|-0-0---0---0---0-|-3-3----3-3------|-----------------|/7-7----7-7------|
D|-----------------|-----------------|-5-5----5-5------|-----------------|

[Chorus 2] Guitar 1 [Tomo]
e|-----------------|-----------------|-----------------|-----------------|
b|-----------------|-----------------|-----------------|-----------------|
g|-5---------------|-7---------------|-----------------|-9---------------|
d|-5---------------|-7---------------|-7---------------|-9---------------|
a|-3---------------|-5---------------|-7---------------|-7---------------|
D|-----------------|-----------------|-7---------------|-----------------|
 
e|-----------------|-----------------|-----------------|-----------------|
b|-----------------|-----------------|-----------------|-----------------|
g|-5---------------|-7---------------|-----------------|-----------------|
d|-5---------------|-7---------------|-----------------|-----------------|
a|-3---------------|-5---------------|-----------------|-----------------|
D|-----------------|-----------------|-----------------|-----------------|

[Bridge] Guitar 1 [Tomo] x4 [Keyboard under this riff]
e|-----------------|-----------------|-----------------|-----------------|
b|-----------------|-----------------|-----------------|-----------------|
g|-----------------|-----------------|-7-7-7-7-7-7-7-7-|-7-7-7-7-7-7-7-7-|
d|-----2---2---2---|---2---2---2---2-|-5-5-5-5-5-5-5-5-|-5-5-5-5-5-5-5-5-|
a|-0-0-0-0-0-0-0-0-|-0-0-0-0-0-0-0-0-|-5-5-5-5-5-5-5-5-|-5-5-5-5-5-5-5-5-|
D|-----------------|-----------------|-----------------|-----------------|

[Chorus 2] Guitar 1 [Tomo]
e|-----------------|-----------------|-----------------|-----------------|
b|-----------------|-----------------|-----------------|-----------------|
g|-5---------------|-7---------------|-----------------|-9---------------|
d|-5---------------|-7---------------|-7---------------|-9---------------|
a|-3---------------|-5---------------|-7---------------|-7---------------|
D|-----------------|-----------------|-7---------------|-----------------|
 
e|-----------------|-----------------|-----------------|-----------------|
b|-----------------|-----------------|-----------------|-----------------|
g|-5---------------|-7---------------|-2---------------|-2---------------|
d|-5---------------|-7---------------|-2---------------|-2---------------|
a|-3---------------|-5---------------|-0---------------|-0---------------|
D|-----------------|-----------------|-----------------|-----------------|

e|-----------------|-----------------|-----------------|-----------------|
b|-----------------|-----------------|-----------------|-----------------|
g|-5---------------|-7---------------|-----------------|-9---------------|
d|-5---------------|-7---------------|-7---------------|-9---------------|
a|-3---------------|-5---------------|-7---------------|-7---------------|
D|-----------------|-----------------|-7---------------|-----------------|
 
e|-----------------|-----------------|-----------------|-----------------|
b|-----------------|-----------------|-----------------|-----------------|
g|-5---------------|-7---------------|-5---------------|-7---------------|
d|-5---------------|-7---------------|-5---------------|-7---------------|
a|-3---------------|-5---------------|-3---------------|-5---------------|
D|-----------------|-----------------|-----------------|-----------------|

e|-----------------|-----------------|-----------------|-----------------|
b|-----------------|-----------------|-----------------|-----------------|
g|-5---------------|-7---------------|-2~--------------|-----------------|
d|-5---------------|-7---------------|-2~--------------|-----------------|
a|-3---------------|-5---------------|-0~--------------|-----------------|
D|-----------------|-----------------|-----------------|-----------------|

-------------------------------the fantasy-----------------------------------
intro:
e ---------------------------------------------------------------------------|
B ---------------------------------------------------------------------------|
G ---------------------------------------------------------------------------|
D ---------------------------------------------------------------------------|
A -13-13-13-13-13-13-13--11-11-11-11-13-14-13--8-8-9--9-9-11--11-11-9--9-9-8-|
E ---------------------------------------------------------------------------|

e --------------------------------------------------------------------------|
B --------------------------------------------------------------------------|
G --------------------------------------------------------------------------|
D --------------------------------------------------------------------------|
A -13-13-13-13-13-13-13--11-11-11-11-13-14-13--8-8-9--9-9-11----------------|
E --------------------------------------------------------------------------|

The chorus uses the following chords, just liseten for the strumming pattern
e ---------------------------------------------------------------------------|
B ---------------------------------------------------------------------------|
G ---------------------------------------------------------------------------|
D -9--11--13-----------------------------------------------------------------|
A -9--11--13-----------------------------------------------------------------|
E -7---9--11-----------------------------------------------------------------|


The bridge uses these chords, again listen for strumming pattern
e --------------------------------------------------------------------------|
B --------------------------------------------------------------------------|
G --------------------------------------------------------------------------|
D -13--14--16---------------------------------------------------------------|
A -13--14--16---------------------------------------------------------------|
E -11--12--14---------------------------------------------------------------|

--------------------------------savior---------------------------------------
[Intro 1] Keyboard
e|-11-11-1111-11-11|-11-11-1111-11-11|-10-10-1010-10-10|-10-10-1010-10-10|
b|-----------------|-----------------|-----------------|-----------------|
g|-----------------|-----------------|-----------------|-----------------|
 
[Verse1] Guitar 1 [Tomo] x4  [Keyboard under theese tones]
e|-----------------|-----------------|-----------------|-----------------|
b|-8---------------|-8---------------|-13------11------|-10--------------|
g|-x---------------|-x---------------|-x-------x-------|-x---------------|
d|-5---------------|-5---------------|-10------8-------|-7---------------|
a|-----------------|-----------------|-----------------|-----------------|
D|-----------------|-----------------|-----------------|-----------------|
 
[Chorus1] Guitar 1 [Tomo]
e|-----------------|-----------------|-----------------|-----------------|
b|-10---11---13----|-10---11---13----|-10---11---13----|-10---11---13----|
g|-x----x----x-----|-x----x----x-----|-x----x----x-----|-x----x----x-----|
d|-7----8----10----|-7----8----10----|-7----8----10----|-7----8----10----|
a|-----------------|-----------------|-----------------|-----------------|
D|-----------------|-----------------|-----------------|-----------------|

e|-----------------|-----------------|-----------------|-----------------|
b|-10---11---13----|-10---11---13----|-10---11---13----|-15--------------|
g|-x----x----x-----|-x----x----x-----|-x----x----x-----|-x---------------|
d|-7----8----10----|-7----8----10----|-7----8----10----|-12--------------|
a|-----------------|-----------------|-----------------|-----------------|
D|-----------------|-----------------|-----------------|-----------------|

[Verse2] Guitar 1 [Tomo] x2  [Keyboard under theese tones]
e|-----------------|-----------------|-----------------|-----------------|
b|-8---------------|-8---------------|-13------11------|-10--------------|
g|-x---------------|-x---------------|-x-------x-------|-x---------------|
d|-5---------------|-5---------------|-10------8-------|-7---------------|
a|-----------------|-----------------|-----------------|-----------------|
D|-----------------|-----------------|-----------------|-----------------|

[Chorus2] Guitar 1 [Tomo]
e|-----------------|-----------------|-----------------|-----------------|
b|-10---11---13----|-10---11---13----|-10---11---13----|-10---11---13----|
g|-x----x----x-----|-x----x----x-----|-x----x----x-----|-x----x----x-----|
d|-7----8----10----|-7----8----10----|-7----8----10----|-7----8----10----|
a|-----------------|-----------------|-----------------|-----------------|
D|-----------------|-----------------|-----------------|-----------------|

e|-----------------|-----------------|-----------------|-----------------|
b|-10---11---13----|-10---11---13----|-10---11---13----|-15--------------|
g|-x----x----x-----|-x----x----x-----|-x----x----x-----|-x---------------|
d|-7----8----10----|-7----8----10----|-7----8----10----|-12--------------|
a|-----------------|-----------------|-----------------|-----------------|
D|-----------------|-----------------|-----------------|-----------------|

[Bridge] Guitar 1 [Tomo]
e|-----------------|-----------------|-----------------|
b|-----------------|-----------------|-----------------|
g|-----------------|-----------------|-----------------|
d|----12---10------|----10---8-------|-----8---7-------|
a|-----------------|-----------------|-----------------|
D|-5---------------|-8---------------|-5---------------|

e|-----------------|-----------------|-----------------|
b|-----------------|-----------------|-----------------|
g|-----------------|-----------------|-----------------|
d|----12---10------|----10---5-------|-3---------------|
a|-----------------|-----------------|-----------------|
D|-5---------------|-8---------------|-3~--------------|

[Verse3] Guitar 1 [Tomo] x2  [Keyboard under theese tones]
e|-----------------|-----------------|-----------------|-----------------|
b|-8---------------|-8---------------|-13------11------|-10--------------|
g|-x---------------|-x---------------|-x-------x-------|-x---------------|
d|-5---------------|-5---------------|-10------8-------|-7---------------|
a|-----------------|-----------------|-----------------|-----------------|
D|-----------------|-----------------|-----------------|-----------------|

[Chorus3/Outro] Guitar 1 [Tomo]
e|-----------------|-----------------|-----------------|-----------------|
b|-10---11---13----|-10---11---13----|-10---11---13----|-10---11---13----|
g|-x----x----x-----|-x----x----x-----|-x----x----x-----|-x----x----x-----|
d|-7----8----10----|-7----8----10----|-7----8----10----|-7----8----10----|
a|-----------------|-----------------|-----------------|-----------------|
D|-----------------|-----------------|-----------------|-----------------|

e|-----------------|-----------------|-----------------|-----------------|
b|-10---11---13----|-10---11---13----|-10---11---13----|-15--------------|
g|-x----x----x-----|-x----x----x-----|-x----x----x-----|-x---------------|
d|-7----8----10----|-7----8----10----|-7----8----10----|-12--------------|
a|-----------------|-----------------|-----------------|-----------------|
D|-----------------|-----------------|-----------------|-----------------|

-----------------------------from yesterday----------------------------------
INTRO VERSE 1
Eb|-------------------------------------------------|
Bb|-------------------------------------------------|
Gb|-------------------------------------------------|
Db|-------9---9---9---9---9-----9---9---9---9---9---|
Ab|-----77--77--77--77--77--7-66--66--66--66--66-6--|
Eb|-------------------------------------------------|

CHORUS 1

Eb|--------------------------------------------|
Bb|--------------------------------------------|
Gb|--------------------------------------------|
Db|----9--4--6--2----9--4--2--4----------------|
Ab|----9--4--6--2----9--4--2--4----------------|
Eb|----7--2--4--0----7--2--0--2----------------|

Verse 2
Eb|-------------------------------------------------|
Bb|-------------------------------------------------|
Gb|-------------------------------------------------|
Db|-------9---9---9---9---9-----9---9---9---9---9---|
Ab|-----77--77--77--77--77--7-66--66--66--66--66-6--|
Eb|-------------------------------------------------|

PRE CHORUS ( verse 2 )
Eb|--------------------------------------------|
Bb|--------------------------------------------|
Gb|--------------------------------------------|
Db|--------------------------------------------|
Ab|----777777-7-7-777-(7)--666666-6-6-666-(6)--|
Eb|--------------------------------------------|

CHORUS 2

Eb|--------------------------------------------|
Bb|--------------------------------------------|
Gb|----------------------------9--11-----------|
Db|----9--4--6--2----9--4--2---9--11-----------|
Ab|----9--4--6--2----9--4--2---7--9------------|
Eb|----7--2--4--0----7--2--0-------------------|

BRIDGE

Eb|---------------------------------------------------------|
Bb|---------------------------------------------------------|
Gb|---------------------------------------------------------|
Db|-------8-8-(9)-9--8-8-8-8-(9)-9-9------------------------|
Ab|--6-6--6-6/(7)-7--6-6-6-6/(7)-7-7----2-2---9-9-8-8-------|
Eb|--4-4--------------------------------0-0---7-7-6-6-------|

Eb|---------------------------------------------------------|
Bb|---------------------------------------------------------|
Gb|---------------------------------------------------------|
Db|-------8-8-(9)-9--8-8-8-8-(9)-9-9------------------------|
Ab|--6-6--6-6/(7)-7--6-6-6-6/(7)-7-7----2-2---9-(9)-8-(8)---|
Eb|--4-4--------------------------------0-0---7-(7)-6-(6)---|

Eb|---------------------------------------------------------|
Bb|---------------------------------------------------------|
Gb|---------------------------------------------------------|
Db|-------8-8-(9)-9--8-8-8-8-(9)-9-9------------------------|
Ab|--6-6--6-6/(7)-7--6-6-6-6/(7)-7-7----2-2---9-9-8-8-------|
Eb|--4-4--------------------------------0-0---7-7-6-6-------|

Eb|---------------------------------------------------------|
Bb|---------------------------------------------------------|
Gb|---------------------------------------------------------|
Db|-------8-8-(9)-9--8-8-8-8-(9)-9-9----4444444444444-------|
Ab|--6-6--6-6/(7)-7--6-6-6-6/(7)-7-7----4444444444444-------|
Eb|--4-4--------------------------------2222222222222-------|

CHORUS

Eb|--------------------------------------------|
Bb|--------------------------------------------|
Gb|--------------------------------------------|
Db|----9--4--6--2----9--4--2--4----------------|
Ab|----9--4--6--2----9--4--2--4----------------|
Eb|----7--2--4--0----7--2--0--2----------------|

Eb|--------------------------------------------|
Bb|--------------------------------------------|
Gb|----------------------------9--11-----------|
Db|----9--4--6--2----9--4--2---9--11-----------|
Ab|----9--4--6--2----9--4--2---7--9------------|
Eb|----7--2--4--0----7--2--0-------------------|

Eb|--------------------------------------------|
Bb|--------------------------------------------|
Gb|--------------------------------------------|
Db|-------8-8--9--9--8-8-8-8--9--9-9-----------|
Ab|--6-6--6-6/(7)-7--6-6-6-6/(7)-7-7----2-2----|
Eb|--4-4--------------------------------0-0----|

--------------------------------the story------------------------------------
Turning: Drop low E to C#

                                                         (x10)
E|-----------------------------|------------------------------|
B|-----------------------------|------------------------------|
G|-----------------------------|------------------------------|
D|-----4-------6---------------|-----4-------6----------------|
A|-2-2---2-4-4---4-----6---4-6-|-2-2---2-4-4---4----6-----6-4-|
C|-----------------7-7---7-----|----------------7-7---7-7-----|

E|--------------------------|---------------------------------|
B|--------------------------|---------------------------------|
G|--------------------------|-8--8--8--8--8--8--8--8----------|
D|--9--9--9--9--9--9--9--9--|-9--9--9--9--9--9--9--9----------|
A|--7--7--7--7--7--7--7--7--|-7--7--7--7--7--7--7--7----------|
C|--------------------------|---------------------------------|
short pause (8 bars rest, 4 by 4 beat)
chorus starts
                                                         (x2)
E|-----------------------------|------------------------------|
B|-----------------------------|------------------------------|
G|-----------------------------|------------------------------|
D|-----4-------6---------------|-----4-------6----------------|
A|-2-2---2-4-4---4-----6---4-6-|-2-2---2-4-4---4----6-----6-4-|
C|-----------------7-7---7-----|----------------7-7---7-7-----|

                                               (x4)
E|------------|-----------|-----------|-----------|
B|------------|-----------|-----------|-----------|
G|------------|-----------|-----------|-----------|
D|------------|---2-----2-|---6-----6-|---4-----4-|
A|----4-----4-|-----------|-----------|-----------|
C|--0---0-0---|-3---3-3---|-7---7-7---|-5---5-5---|


E|------------|-----------|-----------|-----------|
B|------------|-----------|-----------|-----------|
G|------------|-----------|---------8-|-----------|
D|------------|---2-----2-|---6-------|-----4-----|
A|----4-----4-|-----------|-----------|-----------|
C|--0---0-0---|-3---3-3---|-7---7-7---|-5-5-------|
NOTE: let the last note ring for the pause

                                                           (x4)
E|-----------------------------|------------------------------|
B|-----------------------------|------------------------------|
G|-----------------------------|------------------------------|
D|-----4-------6---------------|-----4-------6----------------|
A|-2-2---2-4-4---4-----6---4-6-|-2-2---2-4-4---4----6-----6-4-|
C|-----------------7-7---7-----|----------------7-7---7-7-----|


E|-----------------------------|
B|-----------------------------|
G|-----------------------------|
D|----4-------6----------------|
A|2-2---2-4-4---4----6---------|
C|---------------7-7---7-------|

--------------------------------Re-evolve------------------------------------
Intro
d|---------------------------------------------------------------------------|
A|---------------------------------------------------------------------------|
F|---------------------------------------------------------------------------|
C|-----0-------0-------0-------0-------0-------0-------0---------------------|
G|---9---9---9---9---7---7---7---7---5---5---5---5---5---5---5---4-----------|
D|-7-------7-------5-------5-------3-------3-------3-------3---2-------------|

d|---------------------------------------------------------------------------|
A|---------------------------------------------------------------------------|
F|---------------------------------------------------------------------------|
C|-----0-------0-------0-------0-------4-------4-------4-------4-------------|
G|---9---9---9---9---7---7---7---7---5---5---5---5---5---5---5---5-----------|
D|-7-------7-------5-------5-------3-------3-------3-------3-----------------|

Verse x2
d|---------------------------------------------------------------------------|
A|---------------------------------------------------------------------------|
F|---------------------------------------------------------------------------|
C|-----0-------0-------0-------0-------0-------0-------0---------------------|
G|---9---9---9---9---7---7---7---7---5---5---5---5---5---5---5---4-----------|
D|-7-------7-------5-------5-------3-------3-------3-------3---2-------------|

d|---------------------------------------------------------------------------|
A|---------------------------------------------------------------------------|
F|---------------------------------------------------------------------------|
C|-----0-------0-------0-------0-------4-------4-------4-------4-------------|
G|---9---9---9---9---7---7---7---7---5---5---5---5---5---5---5---5-----------|
D|-7-------7-------5-------5-------3-------3-------3-------3-----------------|

Chorus
d|---------------------------------------------------------------------------|
A|---------------------------------------------------------------------------|
F|------------------7777777777777-6666666666666666666-7777777777777777-------|
C|-7777777777777777-7777777777777-6666666666666666666-7777777777777777-------|
G|-7777777777777777-5555555555555-4444444444444444444-5555555555555555-------|
D|-5555555555555555----------------------------------------------------------|
        (16)            (13)             (19)              (16)     <- # of strums

Post-Chorus
d|---------------------------------------------------------------------------|
A|-10-10-10-10-8-7--10-10-10-10-8-7--10-10-10-10-8-7-5-5-5-5-7--3------------|
F|---------------------------------------------------------------------------|
C|---------------------------------------------------------------------------|
G|---------------------------------------------------------------------------|
D|---------------------------------------------------------------------------|

Verse x2
d|---------------------------------------------------------------------------|
A|---------------------------------------------------------------------------|
F|---------------------------------------------------------------------------|
C|-----0-------0-------0-------0-------0-------0-------0---------------------|
G|---9---9---9---9---7---7---7---7---5---5---5---5---5---5---5---4-----------|
D|-7-------7-------5-------5-------3-------3-------3-------3---2-------------|

d|---------------------------------------------------------------------------|
A|---------------------------------------------------------------------------|
F|---------------------------------------------------------------------------|
C|-----0-------0-------0-------0-------4-------4-------4-------4-------------|
G|---9---9---9---9---7---7---7---7---5---5---5---5---5---5---5---5-----------|
D|-7-------7-------5-------5-------3-------3-------3-------3-----------------|

Pre-Chorus
d|---------------------------------------------------------------------------|
A|---------------------------------------------------------------------------|
F|---------------------------------------------------------------------------|
C|-----0-------0-------0-------0-------0-------0-------0---------------------|
G|---9---9---9---9---7---7---7---7---5---5---5---5---5---5---5---4-----------|
D|-7-------7-------5-------5-------3-------3-------3-------3---2-------------|

Chorus
d|---------------------------------------------------------------------------|
A|---------------------------------------------------------------------------|
F|------------------7777777777777-6666666666666666666-7777777777777----------|
C|-7777777777777777-7777777777777-6666666666666666666-7777777777777----------|
G|-7777777777777777-5555555555555-4444444444444444444-5555555555555----------|
D|-5555555555555555----------------------------------------------------------|
        (16)            (13)             (19)              (13)     <- # of strums

d|---------------------------------------------------------------------------|
A|---------------------------------------------------------------------------|
F|-6666666666666666666-7777777777777-6666666666666666666-7777777777777-666---|
C|-6666666666666666666-7777777777777-6666666666666666666-7777777777777-666---|
G|-4444444444444444444-5555555555555-4444444444444444444-5555555555555-444---|
D|---------------------------------------------------------------------------|
        (19)               (13)            (19)               (13)     (3) <- # of strums

Bridge x4
d|---------------------------------------------------------------------------|
A|---------------------------------------------------------------------------|
F|---------------------------------------------------------------------------|
C|-55555555-77777777-999999999-11-11-11-11-12-12-12--------------------------|
G|-55555555-77777777-999999999-11-11-11-11-12-12-12--------------------------|
D|-33333333-55555555-777777777-9--9--9--9--10-10-10--------------------------|
      (8)     (8)       (9)       (4)         (3)     <- # of strums

Breakdown (Listen to the song for the exact timing)
d|---------------------------------------------------------------------------|
A|---------------------------------------------------------------------------|
F|---------------------------------------------------------------------------|
C|---------------------------------------------------------------------------|
G|---------------------------------------------------------------------------|
D|-7~-------5~--------3~----------27~-------10-3~-------7~-----5~----3~------|

d|------------------------------|     d|-------------------------------------|
A|------------------------------|     A|-5--14--10--7--12--14--15------------|
F|-9--18--14--11--16--18--19----| or  F|-x--x---x---x--x---x---x-------------|
C|-x--x---x---x---x---x---x-----|     C|-2--11--7---4--9---11--12------------|
G|-7--16--12--9---14--16--17----|     G|-------------------------------------|
D|------------------------------|     D|-------------------------------------|

Bridge guitar 1 x4
d|--------------------------------------------------|
A|--------------------------------------------------|
F|--------------------------------------------------|
C|-55555555-77777777-999999999-11-11-11-11-12-12-12-|
G|-55555555-77777777-999999999-11-11-11-11-12-12-12-|
D|-33333333-55555555-777777777-9--9--9--9--10-10-10-|
      (8)     (8)       (9)       (4)         (3)     <- # of strums

Bridge guitar 2 x4 (Sorry this is a really long line...)
d|-10-10-10-10-10-10-10-10-12-12-12-12-12-12-12-12-14-14-14-14-14-14-14-14-14-14-14-14-14-14-14-14|
A|-x--x--x--x--x--x--x--x--x--x--x--x--x--x--x--x--x--x--x--x--x--x--x--x--x--x--x--x--x--x--x--x-|
F|-7--7--7--7--7--7--7--7--9--9--9--9--9--9--9--9--11-11-11-11-11-11-11-11-11-11-11-11-11-11-11-11|
C|------------------------------------------------------------------------------------------------|
G|------------------------------------------------------------------------------------------------|
D|------------------------------------------------------------------------------------------------|

Outro
d|--------------------------|
A|--------------------------|
F|--------------------------|
C|-9~------12~------9~------|
G|-9~------12~------9~------|
D|-7~------10~------7~------|

------------------------------A modern myth----------------------------------
Tuning: Drop D

This song is actually performed on two guitars playing simultaneously.  You
can tell because in the intro/first verse/chorus, you can hear one guitar
playing the chords and the other constantly strumming.  Then after the
bridge plays, the second guitar is playing the same chords as the first.
This is arranged for only one guitar.

--Intro
e|-----------------------------------------------------|
B|-----------------------------------------------------|
G|-7---7---7---3---3---3-------------------------------|
D|-7---7---7---3---3---3---5---5---5---5---5---5---5---|
A|-5---5---5---1---1---1---5---5---5---5---5---5---5---|
D|-0---0---0---------------5---5---5---5---5---5---5---|

e|-----------------------------------------------------|
B|-----------------------------------------------------|
G|-7---7---7---3---3---3---5---5---5---5---5---5---5---|
D|-7---7---7---3---3---3---5---5---5---5---5---5---5---|
A|-5---5---5---1---1---1---3---3---3---3---3---3---3---|
D|-0---0---0-------------------------------------------|

--Verse
  Did we create...
e|-----------------------------------------------------|
B|-----------------------------------------------------|
G|-7---7---7---3---3---3-------------------------------|
D|-7---7---7---3---3---3---5---5---5---5---5---5---5---|
A|-5---5---5---1---1---1---5---5---5---5---5---5---5---|
D|-0---0---0---------------5---5---5---5---5---5---5---|
  What happened then...
e|-----------------------------------------------------|
B|-----------------------------------------------------|
G|-7---7---7---3---3---3---5---5---5---5---5---5---5---|
D|-7---7---7---3---3---3---5---5---5---5---5---5---5---|
A|-5---5---5---1---1---1---3---3---3---3---3---3---3---|
D|-0---0---0-------------------------------------------|

--Chorus
  A secret is out...
e|-----------------------------------------------------|
B|-----------------------------------------------------|
G|-3---3---3---3---3---3---5---5---5---5---5---5---5---|
D|-3---3---3---3---3---3---5---5---5---5---5---5---5---|
A|-1---1---1---1---1---1---3---3---3---3---3---3---3---|
D|-----------------------------------------------------|
  A secret is out...
e|-----------------------------------------------------|
B|-----------------------------------------------------|
G|-3---3---3---3---3---3---5---5---5---5---5---5---5---|
D|-3---3---3---3---3---3---5---5---5---5---5---5---5---|
A|-1---1---1---1---1---1---3---3---3---3---3---3---3---|
D|-----------------------------------------------------|

--Four beats on guitar

--Bridge
e|-----------------------------------------------------|
B|-----------------------------------------------------|
G|-----------------------------------------------------|
D|-12\10-10-10\8-8-8\7-8\7-7-7\5-5-5\3-5\7-7-7-5\7-7-7-|
A|-----------------------------------------------------|
D|-----------------------------------------------------|

e|-----------------------------------------------------|
B|-----------------------------------------------------|
G|---------------------------------3\5-5-5-3\5-5-5-----|
D|-12\10-10-10\8-8-8\7-8\7-7-7\5-5---------------------|
A|-----------------------------------------------------|
D|-----------------------------------------------------|


--Verse
  To buy the truth...
e|-----------------------------------------------------|
B|-----------------------------------------------------|
G|-7---7---7---3---3---3-------------------------------|
D|-7---7---7---3---3---3---5---5---5---5---5---5---5---|
A|-5---5---5---1---1---1---5---5---5---5---5---5---5---|
D|-0---0---0---------------5---5---5---5---5---5---5---|
  So don't forget...
e|-----------------------------------------------------|
B|-----------------------------------------------------|
G|-7---7---7---3---3---3---5---5---5---5---5---5---5---|
D|-7---7---7---3---3---3---5---5---5---5---5---5---5---|
A|-5---5---5---1---1---1---3---3---3---3---3---3---3---|
D|-0---0---0-------------------------------------------|

--Chorus
  A secret is out...
e|-----------------------------------------------------|
B|-----------------------------------------------------|
G|-3---3---3---3---3---3---5---5---5---5---5---5---5---|
D|-3---3---3---3---3---3---5---5---5---5---5---5---5---|
A|-1---1---1---1---1---1---3---3---3---3---3---3---3---|
D|-----------------------------------------------------|
  A secret is out...
e|-----------------------------------------------------|
B|-----------------------------------------------------|
G|-3---3---3---3---3---3---5---5---5---5---5---5---5---|
D|-3---3---3---3---3---3---5---5---5---5---5---5---5---|
A|-1---1---1---1---1---1---3---3---3---3---3---3---3---|
D|-----------------------------------------------------|
  A secret is out...
e|-----------------------------------------------------|
B|-----------------------------------------------------|
G|-3---3---3---3---3---3---5---5---5---5---5---5---5---|
D|-3---3---3---3---3---3---5---5---5---5---5---5---5---|
A|-1---1---1---1---1---1---3---3---3---3---3---3---3---|
D|-----------------------------------------------------|
  A secret is out...
e|-----------------------------------------------------|
B|-----------------------------------------------------|
G|-3---3---3---3---3---3---5---5---5---5---5---5---5---|
D|-3---3---3---3---3---3---5---5---5---5---5---5---5---|
A|-1---1---1---1---1---1---3---3---3---3---3---3---3---|
D|-----------------------------------------------------|

--Outro (x16)
  Goodbye...
e|--------------|
B|--------------|
G|-10---9---5---|
D|--8-----------|
A|--8---7---3---|
D|--------------|

The outro consists of both the above and the chorus.  It is up to you, if
you are playing this alone, which you would like to use.  If it is 2
guitarists, one plays the above outro and the other plays the chorus.  It's
a rather simple song and is identifiable by those who've heard the album.
Enjoy!

| /  slide up
| \  slide down
| h  hammer-on
| p  pull-off
| ~  vibrato
| +  harmonic
| x  Mute note


there it is!




comments
print report bad tab
1 comment total.
0 reply
beckymars wrote on January 24 2011, 03:52 pm

Thanks very much for posting this; helped me correct myself

Provehito in Altum
₪ ø lll ·o.

I want to post or [tab]
guest
You may want to rate the tab now too:
select rating
Please do not post tabs as comments. Select "correction" instead!