Oops, an error
Loading. Please wait.

A Beautiful Lie Tab

ver7
ver7
More versions @911Tabs.com
793 views 15 this week
1 commentread comment
1 2 3 4 5
accurate
x 1
Autoscroll
+/-
esc
set tempo
stop
Contributor
Difficulty
intermediate
WARNING: You are trying to view
                                    content from Ultimate-Guitar.com
                                    in an unauthorized application,
                                    which is prohibited.

                                    Please use an official Ultimate
                                    Guitar Tabs application for iPhone,
                                    iPad or Android to access legitimate
                                    chords, guitar, bass, and drum tabs
                                    from Ultimate-Guitar.com database.

                                    Type "ultimate guitar tabs" in Apple
                                    App Store's or Android Market's
                                    search to find the application.
Piano Intro:
X1
e |-----------------------------|
B |--13--12----------13-12------|
G |-----------12-------------12-|
D |-----------------------------|
A |-----------------------------|
E |-----------------------------|

Instrumental intro (no vocals at this point, only guitar + drums)
X1
e |------------------------------------------------------------------------------------------|
B |------------------------------------------------------------------------------------------|
G |-4strums---------5strums----------9strums--------------------5strums-------5strums--------|
D |--14-14-14-14--14-14-14-14-14--14-14-14-14-14-14-14-14-14--14-14-14-14-14--14-14-14-14-14-|
A |--14-14-14-14--14-14-14-14-14--14-14-14-14-14-14-14-14-14--14-14-14-14-14--14-14-14-14-14-|
E |--12-12-12-12--12-12-12-12-12--12-12-12-12-12-12-12-12-12--12-12-12-12-12--12-12-12-12-12-|

e |------------------------------------------------------------------------------------------|
B |------------------------------------------------------------------------------------------|
G |------------------------------------------------------------------------------------------|
D |--15-15-15-15--15-15-15-15-15--15-15-15-15-15-15-15-15-15--15-15-15-15-15--15-15-15-15-15-|
A |--15-15-15-15--15-15-15-15-15--15-15-15-15-15-15-15-15-15--15-15-15-15-15--15-15-15-15-15-|
E |--13-13-13-13--13-13-13-13-13--13-13-13-13-13-13-13-13-13--13-13-13-13-13--13-13-13-13-13-|

e |------------------------------------------------------------------------------------------|
B |------------------------------------------------------------------------------------------|
G |------------------------------------------------------------------------------------------|
D |--12-12-12-12--12-12-12-12-12--12-12-12-12-12-12-12-12-12--12-12-12-12-12--12-12-12-12-12-|
A |--12-12-12-12--12-12-12-12-12--12-12-12-12-12-12-12-12-12--12-12-12-12-12--12-12-12-12-12-|
E |--10-10-10-10--10-10-10-10-10--10-10-10-10-10-10-10-10-10--10-10-10-10-10--10-10-10-10-10-|


e |------------------------------------------------------------------------------------------|
B |------------------------------------------------------------------------------------------|
G |------------------------------------------------------------------------------------------|
D |--14-14-14-14--14-14-14-14-14--14-14-14-14-14-14-14-14-14--14-14-14-14-14--14-14-14-14-14-|
A |--14-14-14-14--14-14-14-14-14--14-14-14-14-14-14-14-14-14--14-14-14-14-14--14-14-14-14-14-|
E |--12-12-12-12--12-12-12-12-12--12-12-12-12-12-12-12-12-12--12-12-12-12-12--12-12-12-12-12-|



Verse 1:
e |-----------------------------------------------------|
B |-----------------------------------------------------|
G |-----------------------------------------------------|
D |-----------------------------------------------------|
A |-----------------------------------------------------|
E |-555555555555-555555555555-8888888888/1-8888888888/1-|

e |--------------------------------------------------|
B |--------------------------------------------------|
G |--------------------------------------------------|
D |--------------------------------------------------|
A |--------------------------------------------------|
E |-555555555555-555555555555-1010-1010-88-88--77-55-|


Chorus 1:
X1
e |------------------------------------------------------------------------------------------|
B |------------------------------------------------------------------------------------------|
G |-4strums---------5strums----------9strums--------------------5strums-------5strums--------|
D |--14-14-14-14--14-14-14-14-14--14-14-14-14-14-14-14-14-14--14-14-14-14-14--14-14-14-14-14-|
A |--14-14-14-14--14-14-14-14-14--14-14-14-14-14-14-14-14-14--14-14-14-14-14--14-14-14-14-14-|
E |--12-12-12-12--12-12-12-12-12--12-12-12-12-12-12-12-12-12--12-12-12-12-12--12-12-12-12-12-|

e |------------------------------------------------------------------------------------------|
B |------------------------------------------------------------------------------------------|
G |------------------------------------------------------------------------------------------|
D |--15-15-15-15--15-15-15-15-15--15-15-15-15-15-15-15-15-15--15-15-15-15-15--15-15-15-15-15-|
A |--15-15-15-15--15-15-15-15-15--15-15-15-15-15-15-15-15-15--15-15-15-15-15--15-15-15-15-15-|
E |--13-13-13-13--13-13-13-13-13--13-13-13-13-13-13-13-13-13--13-13-13-13-13--13-13-13-13-13-|

e |------------------------------------------------------------------------------------------|
B |------------------------------------------------------------------------------------------|
G |------------------------------------------------------------------------------------------|
D |--12-12-12-12--12-12-12-12-12--12-12-12-12-12-12-12-12-12--12-12-12-12-12--12-12-12-12-12-|
A |--12-12-12-12--12-12-12-12-12--12-12-12-12-12-12-12-12-12--12-12-12-12-12--12-12-12-12-12-|
E |--10-10-10-10--10-10-10-10-10--10-10-10-10-10-10-10-10-10--10-10-10-10-10--10-10-10-10-10-|


e |------------------------------------------------------------------------------------------|
B |------------------------------------------------------------------------------------------|
G |------------------------------------------------------------------------------------------|
D |--14-14-14-14--14-14-14-14-14--14-14-14-14-14-14-14-14-14--14-14-14-14-14--14-14-14-14-14-|
A |--14-14-14-14--14-14-14-14-14--14-14-14-14-14-14-14-14-14--14-14-14-14-14--14-14-14-14-14-|
E |--12-12-12-12--12-12-12-12-12--12-12-12-12-12-12-12-12-12--12-12-12-12-12--12-12-12-12-12-|



Verse 2:
e |-----------------------------------------------------|
B |-----------------------------------------------------|
G |-----------------------------------------------------|
D |-----------------------------------------------------|
A |-----------------------------------------------------|
E |-555555555555-555555555555-8888888888/1-8888888888/1-|

e |--------------------------------------------------|
B |--------------------------------------------------|
G |--------------------------------------------------|
D |--------------------------------------------------|
A |--------------------------------------------------|
E |-555555555555-555555555555-1010-1010-88-88--77-55-|



Chorus 2:
X1
e |------------------------------------------------------------------------------------------|
B |------------------------------------------------------------------------------------------|
G |-4strums---------5strums----------9strums--------------------5strums-------5strums--------|
D |--14-14-14-14--14-14-14-14-14--14-14-14-14-14-14-14-14-14--14-14-14-14-14--14-14-14-14-14-|
A |--14-14-14-14--14-14-14-14-14--14-14-14-14-14-14-14-14-14--14-14-14-14-14--14-14-14-14-14-|
E |--12-12-12-12--12-12-12-12-12--12-12-12-12-12-12-12-12-12--12-12-12-12-12--12-12-12-12-12-|

e |------------------------------------------------------------------------------------------|
B |------------------------------------------------------------------------------------------|
G |------------------------------------------------------------------------------------------|
D |--15-15-15-15--15-15-15-15-15--15-15-15-15-15-15-15-15-15--15-15-15-15-15--15-15-15-15-15-|
A |--15-15-15-15--15-15-15-15-15--15-15-15-15-15-15-15-15-15--15-15-15-15-15--15-15-15-15-15-|
E |--13-13-13-13--13-13-13-13-13--13-13-13-13-13-13-13-13-13--13-13-13-13-13--13-13-13-13-13-|

e |------------------------------------------------------------------------------------------|
B |------------------------------------------------------------------------------------------|
G |------------------------------------------------------------------------------------------|
D |--12-12-12-12--12-12-12-12-12--12-12-12-12-12-12-12-12-12--12-12-12-12-12--12-12-12-12-12-|
A |--12-12-12-12--12-12-12-12-12--12-12-12-12-12-12-12-12-12--12-12-12-12-12--12-12-12-12-12-|
E |--10-10-10-10--10-10-10-10-10--10-10-10-10-10-10-10-10-10--10-10-10-10-10--10-10-10-10-10-|


e |------------------------------------------------------------------------------------------|
B |------------------------------------------------------------------------------------------|
G |------------------------------------------------------------------------------------------|
D |--14-14-14-14--14-14-14-14-14--14-14-14-14-14-14-14-14-14--14-14-14-14-14--14-14-14-14-14-|
A |--14-14-14-14--14-14-14-14-14--14-14-14-14-14-14-14-14-14--14-14-14-14-14--14-14-14-14-14-|
E |--12-12-12-12--12-12-12-12-12--12-12-12-12-12-12-12-12-12--12-12-12-12-12--12-12-12-12-12-|



Verse 3:
e |-----------------------------------------------------|
B |-----------------------------------------------------|
G |-----------------------------------------------------|
D |-----------------------------------------------------|
A |-----------------------------------------------------|
E |-555555555555-555555555555-8888888888/1-8888888888/1-|

e |--------------------------------------------------|
B |--------------------------------------------------|
G |--------------------------------------------------|
D |--------------------------------------------------|
A |--------------------------------------------------|
E |-555555555555-555555555555-1010-1010-88-88--77-55-|



Chorus 3:
---X2---
e |------------------------------------------------------------------------------------------|
B |------------------------------------------------------------------------------------------|
G |-4strums---------5strums----------9strums--------------------5strums-------5strums--------|
D |--14-14-14-14--14-14-14-14-14--14-14-14-14-14-14-14-14-14--14-14-14-14-14--14-14-14-14-14-|
A |--14-14-14-14--14-14-14-14-14--14-14-14-14-14-14-14-14-14--14-14-14-14-14--14-14-14-14-14-|
E |--12-12-12-12--12-12-12-12-12--12-12-12-12-12-12-12-12-12--12-12-12-12-12--12-12-12-12-12-|

e |------------------------------------------------------------------------------------------|
B |------------------------------------------------------------------------------------------|
G |------------------------------------------------------------------------------------------|
D |--15-15-15-15--15-15-15-15-15--15-15-15-15-15-15-15-15-15--15-15-15-15-15--15-15-15-15-15-|
A |--15-15-15-15--15-15-15-15-15--15-15-15-15-15-15-15-15-15--15-15-15-15-15--15-15-15-15-15-|
E |--13-13-13-13--13-13-13-13-13--13-13-13-13-13-13-13-13-13--13-13-13-13-13--13-13-13-13-13-|

e |------------------------------------------------------------------------------------------|
B |------------------------------------------------------------------------------------------|
G |------------------------------------------------------------------------------------------|
D |--12-12-12-12--12-12-12-12-12--12-12-12-12-12-12-12-12-12--12-12-12-12-12--12-12-12-12-12-|
A |--12-12-12-12--12-12-12-12-12--12-12-12-12-12-12-12-12-12--12-12-12-12-12--12-12-12-12-12-|
E |--10-10-10-10--10-10-10-10-10--10-10-10-10-10-10-10-10-10--10-10-10-10-10--10-10-10-10-10-|


e |------------------------------------------------------------------------------------------|
B |------------------------------------------------------------------------------------------|
G |------------------------------------------------------------------------------------------|
D |--14-14-14-14--14-14-14-14-14--14-14-14-14-14-14-14-14-14--14-14-14-14-14--14-14-14-14-14-|
A |--14-14-14-14--14-14-14-14-14--14-14-14-14-14-14-14-14-14--14-14-14-14-14--14-14-14-14-14-|
E |--12-12-12-12--12-12-12-12-12--12-12-12-12-12-12-12-12-12--12-12-12-12-12--12-12-12-12-12-|



Piano Outro:
X1
e |-----------------------------|
B |--13--12----------13-12------|
G |-----------12-------------12-|
D |-----------------------------|
A |-----------------------------|
E |-----------------------------|
comments
We did not receive enough feedback on this tab! Please rate:
1 2 3 4 5
1 comment total.
0 reply
FireTear95-12 wrote on January 11 2013, 01:00 pm

I listened to the song while reading the TAB, and it sounds right, but it looks like you are missing a slight chunk of the song. It sounds like the bridge of the song, where it is almost a piano-sounding solo, but I can tell that it is guitar with a chorus or acoustic simulator. Other than that, nicely done!

I want to post or [tab]
guest
You may want to rate the tab now too:
select rating
Please do not post tabs as comments. Select "correction" instead!