Oops, an error
Loading. Please wait.

Attack Tab

ver1
ver1
More versions @911Tabs.com
26,337 views 15 this week
9 commentsread comments
1 2 3 4 5
accurate
x 8
add to favorites launch autoscroll
font size
0
reset
Autoscroll
+/-
esc
set tempo
stop
Contributor
Difficulty
novice
WARNING: You are trying to view
                                    content from Ultimate-Guitar.com
                                    in an unauthorized application,
                                    which is prohibited.

                                    Please use an official Ultimate
                                    Guitar Tabs application for iPhone,
                                    iPad or Android to access legitimate
                                    chords, guitar, bass, and drum tabs
                                    from Ultimate-Guitar.com database.

                                    Type "ultimate guitar tabs" in Apple
                                    App Store's or Android Market's
                                    search to find the application.
30 Seconds To Mars
"Attack"
A Beauitful Lie

Tabbed by: AutoImagine
Email: evansigmund@yahoo.com


Seeing as how big a hit this song became, and how easy it is to play, I'm surprised
there wasn't a tab of the entire song already floating around. So I figured I'd go
ahead and give it a shot. I tried to be as clear as possible. The ". . ." below each
measure simply indicates the 8th note markers--NOT palm mutes. It's just the way I
write my more simple tabs. ;)

For reference: This song was recorded in studio in F minor. However I was listening
to live performances, and it seems that the band switched everything to E minor. I
guess it was easier for Jared to sing/scream in that key. Whatever. So that being
said, just move everything up one fret if you prefer the sound of the studio version.
Also, 30 Seconds To Mars tune their guitars to C-G-C-F-A-D, however it's not neccessary
for this song, and seeing as how most people play in standard, I tabbed it for you all
in standard.

If you want to play the Into on guitar rather than keys, I find it easiest to play all
the way up the neck starting at the G on the 15th fret of the 6th string.

I hope everything is as clear as possible. I wrote each part after the other instead of
parallel. Listen to the song for strumming patterns. They're all basic 8-Eighth notes
except for Jared in the verse (which is more a of a |-E-E-x-x-E-E-x-x-|) 

This is only my 2nd tab on UG. Please rate!

---

INTRO:

Keyboard - Distorted Synth
|-----#-----#-----|---------#-----B-|-----#-----#-----|---------#-----B-|
|-----F---G-F-E---|---G---E-F-E-----|-----F---G-F-E---|---G---E-F-E-----|
|-----------------|-----------------|-#-#---#-------#-|-#---#-------#---|
|-G-G---G-------G-|-G---G-------G---|-F-F---F-------F-|-F---F-------F---|
|-----------------|-----------------|-----------------|-----------------|
|-----------------|-----------------|-----------------|-----------------|
  . . . . . . . .   . . . . . . . .   . . . . . . . .   . . . . . . . . 

|-----#-----#-----|---------#-----B-|-----#-----#-----|---------#-----B-|
|-----F---G-F-E---|---G---E-F-E-----|-----F---G-F-E---|---G---E-F-E-----|
|-----------------|-----------------|-----------------|-----------------|
|-E-E---E-------E-|-E---E-------E---|-E-E---E-------E-|-E---E-------E---|
|-----------------|-----------------|-----------------|-----------------|
|-----------------|-----------------|-----------------|-----------------|
  . . . . . . . .   . . . . . . . .   . . . . . . . .   . . . . . . . . 




VERSE 1:

Guitar 1 (Tomo) - Wet Distortion w/ Phaser & AutoWah(?)
e|-----------------|-----------------|-----------------|-----------------|
B|-----------------|-----------------|-----------------|---------12------|
G|-12--------------|-12--------------|-11--------------|-9---------------|
D|-----------------|-----------------|-----------------|-----------------|
A|-10--------------|-10--------------|-10--------------|-10------10------|
E|-----------------|-----------------|-----------------|-----------------|
   . . . . . . . .   . . . . . . . .   . . . . . . . .   . . . . . . . . 

e|-----------------|-----------------|-----------------|-----------------|
B|-----------------|-----------------|-----------------|-----------------|
G|-12--------------|-12--------------|-11--------------|-11--------------|
D|-----------------|-----------------|-----------------|-----------------|
A|-10--------------|-10--------------|-10--------------|-10--------------|
E|-----------------|-----------------|-----------------|-----------------|
   . . . . . . . .   . . . . . . . .   . . . . . . . .   . . . . . . . . 

e|-----------------|-----------------|-----------------|-----------------|
B|-----------------|-----------------|-----------------|---------12------|
G|-12--------------|-12--------------|-11--------------|-9---------------|
D|-----------------|-----------------|-----------------|-----------------|
A|-10--------------|-10--------------|-10--------------|-10------10------|
E|-----------------|-----------------|-----------------|-----------------|
   . . . . . . . .   . . . . . . . .   . . . . . . . .   . . . . . . . . 

e|-----------------|-----------------|-----------------|-----------------|
B|-12--------------|-12--------------|-----------------|-----------------|
G|-----------------|-----------------|-----------------|-----------------|
D|-----------------|-----------------|---------------[Rest]--------------|
A|-10--------------|-10--------------|-----------------|-----------------|
E|-----------------|-----------------|-----------------|-----------------|
   . . . . . . . .   . . . . . . . .   . . . . . . . .   . . . . . . . . 


Guitar 2 (Jared) - Overdrive
e|-----------------|-----------------|-----------------|-----------------|
B|-----------------|-----------------|-----------------|-----------------|
G|-----------------|-----------------|-----------------|-----------------|
D|-----------------|---------------[Rest]--------------|-----------------|
A|-----------------|-----------------|-----------------|-----------------|
E|-----------------|-----------------|-----------------|-----------------|
   . . . . . . . .   . . . . . . . .   . . . . . . . .   . . . . . . . . 

e|-----------------|-----------------|-----------------|-----------------|
B|-----------------|-----------------|-----------------|-----------------|
G|-----------------|-----------------|-----------------|-----------------|
D|-----------------|---------------[Rest]--------------|-----------------|
A|-----------------|-----------------|-----------------|-----------------|
E|-----------------|-----------------|-----------------|-----------------|
   . . . . . . . .   . . . . . . . .   . . . . . . . .   . . . . . . . .

e|-----------------|-----------------|-----------------|-----------------|
B|-----------------|-----------------|-----------------|-----------------|
G|-----------------|-----------------|-----------------|-----------------|
D|-17--------------|-17--------------|-16--------------|-16--------------|
A|-----------------|-----------------|-----------------|-----------------|
E|-15--------------|-15--------------|-14--------------|-14--------------|
   . . . . . . . .   . . . . . . . .   . . . . . . . .   . . . . . . . . 

e|-----------------|-----------------|-----------------|-----------------|
B|-----------------|-----------------|-----------------|-----------------|
G|-----------------|-----------------|-----------------|-----------------|
D|-14--------------|-14--------------|---------------[Rest]--------------|
A|-----------------|-----------------|-----------------|-----------------|
E|-12--------------|-12--------------|-----------------|-----------------|
   . . . . . . . .   . . . . . . . .   . . . . . . . .   . . . . . . . . 


CHORUS:

Guitar 1 (Tomo) - Wet Distortion
e|-----------------|-----------------|-----------------|-----------------|
B|-----------------|-----------------|-----------------|-----------------|
G|-5---------------|-5---------------|-7---------------|-7---------------|
D|-----------------|-----------------|-----------------|-----------------|
A|-3---------------|-3---------------|-5---------------|-5---------------|
E|-----------------|-----------------|-----------------|-----------------|
   . . . . . . . .   . . . . . . . .   . . . . . . . .   . . . . . . . . 

e|-----------------|-----------------|-----------------|-----------------|
B|-----------------|-----------------|-----------------|-----------------|
G|-9---------------|-9---------------|-4---------------|-4---------------|
D|-----------------|-----------------|-----------------|-----------------|
A|-7---------------|-7---------------|-2---------------|-2---------------|
E|-----------------|-----------------|-----------------|-----------------|
   . . . . . . . .   . . . . . . . .   . . . . . . . .   . . . . . . . . 

e|-----------------|-----------------|-----------------|-----------------|
B|-----------------|-----------------|-----------------|-----------------|
G|-5---------------|-5---------------|-7---------------|-7---------------|
D|-----------------|-----------------|-----------------|-----------------|
A|-3---------------|-3---------------|-5---------------|-5---------------|
E|-----------------|-----------------|-----------------|-----------------|
   . . . . . . . .   . . . . . . . .   . . . . . . . .   . . . . . . . . 

e|-----------------|-----------------|-----------------|-----------------|
B|-----------------|-----------------|-----------------|-----------------|
G|-9---------------|-9---------------|-16--------------|-16--------------|
D|-----------------|-----------------|-----------------|-----------------|
A|-7---------------|-7---------------|-14--------------|-14--------------|
E|-----------------|-----------------|-----------------|-----------------|
   . . . . . . . .   . . . . . . . .   . . . . . . . .   . . . . . . . . 

e|-----------------|-----------------|
B|-----------------|-----------------|
G|-----------------|-----------------|
D|[Rest while Keyboards Come In On G]|
A|-----------------|-----------------|
E|-----------------|-----------------|
   . . . . . . . .   . . . . . . . .


Guitar 2 (Jared) - Overdrive
e|-----------------|-----------------|-----------------|-----------------|
B|-----------------|-----------------|-----------------|-----------------|
G|-----------------|-----------------|-----------------|-----------------|
D|-10--------------|-10--------------|-12--------------|-12--------------|
A|-10--------------|-10--------------|-12--------------|-12--------------|
E|-8---------------|-8---------------|-10--------------|-10--------------|
   . . . . . . . .   . . . . . . . .   . . . . . . . .   . . . . . . . . 

e|-----------------|-----------------|-----------------|-----------------|
B|-----------------|-----------------|-----------------|-----------------|
G|-----------------|-----------------|-----------------|-----------------|
D|-14--------------|-14--------------|-9---------------|-17------16------|
A|-14--------------|-14--------------|-9---------------|-----------------|
E|-12--------------|-12--------------|-7---------------|-15------14------|
   . . . . . . . .   . . . . . . . .   . . . . . . . .   . . . . . . . . 

e|-----------------|-----------------|-----------------|-----------------|
B|-----------------|-----------------|-----------------|-----------------|
G|-----------------|-----------------|-----------------|-----------------|
D|-10--------------|-10--------------|-12--------------|-12--------------|
A|-10--------------|-10--------------|-12--------------|-12--------------|
E|-8---------------|-8---------------|-10--------------|-10--------------|
   . . . . . . . .   . . . . . . . .   . . . . . . . .   . . . . . . . . 
e|-----------------|-----------------|-----------------|-----------------|
B|-----------------|-----------------|-----------------|-----------------|
G|-----------------|-----------------|-16--------------|-16--------------|
D|-14--------------|-14--------------|-----------------|-----------------|
A|-14--------------|-14--------------|-14--------------|-14--------------|
E|-12--------------|-12--------------|-----------------|-----------------|
   . . . . . . . .   . . . . . . . .   . . . . . . . .   . . . . . . . . 

e|-----------------|-----------------|
B|-----------------|-----------------|
G|-----------------|-----------------|
D|[Rest while Keyboards Come In On G]|
A|-----------------|-----------------|
E|-----------------|-----------------|
   . . . . . . . .   . . . . . . . .



VERSE 2:

Guitar 1 (Tomo) - Wet Distortion w/ Phaser & AutoWah(?) 
e|-----------------|-----------------|-----------------|-----------------|
B|-----------------|-----------------|-----------------|---------12------|
G|-12--------------|-12--------------|-11--------------|-9---------------|
D|-----------------|-----------------|-----------------|-----------------|
A|-10--------------|-10--------------|-10--------------|-10------10------|
E|-----------------|-----------------|-----------------|-----------------|
   . . . . . . . .   . . . . . . . .   . . . . . . . .   . . . . . . . . 

e|-----------------|-----------------|-----------------|-----------------|
B|-----------------|-----------------|-----------------|-----------------|
G|-12--------------|-12--------------|-----------------|-----------------|
D|-----------------|-----------------|---------------[Rest]--------------|
A|-10--------------|-10--------------|-----------------|-----------------|
E|-----------------|-----------------|-----------------|-----------------|
   . . . . . . . .   . . . . . . . .   . . . . . . . .   . . . . . . . . 

e|-----------------|-----------------|-----------------|-----------------|
B|-----------------|-----------------|-----------------|---------12------|
G|-12--------------|-12--------------|-11--------------|-9---------------|
D|-----------------|-----------------|-----------------|-----------------|
A|-10--------------|-10--------------|-10--------------|-10------10------|
E|-----------------|-----------------|-----------------|-----------------|
   . . . . . . . .   . . . . . . . .   . . . . . . . .   . . . . . . . . 

e|-----------------|-----------------|-----------------|-----------------|
B|-----------------|-----------------|-----------------|-----------------|
G|-12--------------|-12--------------|-----------------|-----------------|
D|-----------------|-----------------|---------------[Rest]--------------|
A|-10--------------|-10--------------|-----------------|-----------------|
E|-----------------|-----------------|-----------------|-----------------|
   . . . . . . . .   . . . . . . . .   . . . . . . . .   . . . . . . . . 


Guitar 2 (Jared) - Overdrive
e|-----------------|-----------------|-----------------|-----------------|
B|-----------------|-----------------|-----------------|-----------------|
G|-----------------|-----------------|-----------------|-----------------|
D|-17--------------|-17--------------|-16--------------|-16--------------|
A|-----------------|-----------------|-----------------|-----------------|
E|-15--------------|-15--------------|-14--------------|-14--------------|
   . . . . . . . .   . . . . . . . .   . . . . . . . .   . . . . . . . . 

e|-----------------|-----------------|-----------------|-----------------|
B|-----------------|-----------------|-----------------|-----------------|
G|-----------------|-----------------|-----------------|-----------------|
D|-14--------------|-14--------------|---------------[Rest]--------------|
A|-----------------|-----------------|-----------------|-----------------|
E|-12--------------|-12--------------|-----------------|-----------------|
   . . . . . . . .   . . . . . . . .   . . . . . . . .   . . . . . . . . 

e|-----------------|-----------------|-----------------|-----------------|
B|-----------------|-----------------|-----------------|-----------------|
G|-----------------|-----------------|-----------------|-----------------|
D|-17--------------|-17--------------|-16--------------|-16--------------|
A|-----------------|-----------------|-----------------|-----------------|
E|-15--------------|-15--------------|-14--------------|-14--------------|
   . . . . . . . .   . . . . . . . .   . . . . . . . .   . . . . . . . . 

e|-----------------|-----------------|-----------------|-----------------|
B|-----------------|-----------------|-----------------|-----------------|
G|-----------------|-----------------|-16--------------|-16--17--------\-|
D|-14--------------|-14--------------|-----------------|---------------\-|
A|-----------------|-----------------|-14--------------|-14--15--------\-|
E|-12--------------|-12--------------|-----------------|-----------------|
   . . . . . . . .   . . . . . . . .   . . . . . . . .   . . . . . . . . 


BRDIGE:

Keyboard - Distorted Synth
|-----#-----#-----|---------#-----B-|-----#-----#-----|---------#-----B-|
|-----F---G-F-E---|---G---E-F-E-----|-----F---G-F-E---|---G---E-F-E-----|
|-----------------|-----------------|-#-#---#-------#-|-#---#-------#---|
|-G-G---G-------G-|-G---G-------G---|-F-F---F-------F-|-F---F-------F---|
|-----------------|-----------------|-----------------|-----------------|
|-----------------|-----------------|-----------------|-----------------|
  . . . . . . . .   . . . . . . . .   . . . . . . . .   . . . . . . . . 

|-----#-----#-----|---------#-----B-|-----#-----#-----|---------#-----B-|
|-----F---G-F-E---|---G---E-F-E-----|-----F---G-F-E---|---G---E-F-E-----|
|-----------------|-----------------|-----------------|-----------------|
|-E-E---E-------E-|-E---E-------E---|-E-E---E-------E-|-E---E-------E---|
|-----------------|-----------------|-----------------|-----------------|
|-----------------|-----------------|-----------------|-----------------|
  . . . . . . . .   . . . . . . . .   . . . . . . . .   . . . . . . . . 

|-----#-----#-----|---------#-----B-|-----#-----#-----|---------#-----B-|
|-----F---G-F-E---|---G---E-F-E-----|-----F---G-F-E---|---G---E-F-E-----|
|-----------------|-----------------|-#-#---#-------#-|-#---#-------#---|
|-G-G---G-------G-|-G---G-------G---|-F-F---F-------F-|-F---F-------F---|
|-----------------|-----------------|-----------------|-----------------|
|-----------------|-----------------|-----------------|-----------------|
  . . . . . . . .   . . . . . . . .   . . . . . . . .   . . . . . . . . 

|-----#-----#-----|---------#-----B-|-----------------|-----------------|
|-----F---G-F-E---|---G---E-F-E-----|-----------------|-----------------|
|-----------------|-----------------|--------------[Rest]---------------|
|-E-E---E-------E-|-E---E-------E---|-----------------|-----------------|
|-----------------|-----------------|-----------------|-----------------|
|-----------------|-----------------|-----------------|-----------------|
  . . . . . . . .   . . . . . . . .   . . . . . . . .   . . . . . . . . 


Guitar 1 - Tomo - Overdrive
e|-----------------|-----------------|-----------------|-----------------|
B|-----------------|-----------------|-----------------|-----------------|
G|-----------------|-----------------|-----------------|-----------------|
D|(5)--------------|(5)--------------|(4)--------------|(4)--------------|
A|(5)--------------|(5)--------------|(4)--------------|(4)--------------|
E|(3)--------------|(3)--------------|(2)--------------|(2)--------------|
   . . . . . . . .   . . . . . . . .   . . . . . . . .   . . . . . . . . 

e|-----------------|-----------------|-----------------|-----------------|
B|-----------------|-----------------|-----------------|-----------------|
G|-----------------|-----------------|-----------------|-----------------|
D|(2)--------------|(2)--------------|(2)--------------|(2)--------------|
A|(2)--------------|(2)--------------|(2)--------------|(2)--------------|
E|(0)--------------|(0)--------------|(0)--------------|(0)--------------|
   . . . . . . . .   . . . . . . . .   . . . . . . . .   . . . . . . . . 

e|-----------------|-----------------|-----------------|-----------------|
B|-----------------|-----------------|-----------------|-----------------|
G|-----------------|-----------------|-----------------|-----------------|
D|(5)--------------|(5)--------------|(4)--------------|(4)--------------|
A|(5)--------------|(5)--------------|(4)--------------|(4)--------------|
E|(3)--------------|(3)--------------|(2)--------------|(2)--------------|
   . . . . . . . .   . . . . . . . .   . . . . . . . .   . . . . . . . . 

e|-----------------|-----------------|-----------------|-----------------|
B|-----------------|-----------------|-----------------|-----------------|
G|-----------------|-----------------|-----------------|-----------------|
D|(2)--------------|(2)--------------|---------------[Rest]--------------|
A|(2)--------------|(2)--------------|-----------------|-----------------|
E|(0)--------------|(0)--------------|-----------------|-----------------|
   . . . . . . . .   . . . . . . . .   . . . . . . . .   . . . . . . . . 

Guitar 2 (Jared) doesn't play in the bridge.



LAST CHORUS:

Guitar 1 (Tomo) - Wet Distortion
e|-----------------|-----------------|-----------------|-----------------|
B|-----------------|-----------------|-----------------|-----------------|
G|-5---------------|-5---------------|-7---------------|-7---------------|
D|-----------------|-----------------|-----------------|-----------------|
A|-3---------------|-3---------------|-5---------------|-5---------------|
E|-----------------|-----------------|-----------------|-----------------|
   . . . . . . . .   . . . . . . . .   . . . . . . . .   . . . . . . . . 

e|-----------------|-----------------|-----------------|-----------------|
B|-----------------|-----------------|-----------------|-----------------|
G|-9---------------|-9---------------|-4---------------|-12------11------|
D|-----------------|-----------------|-----------------|-----------------|
A|-7---------------|-7---------------|-2---------------|-10------9-------|
E|-----------------|-----------------|-----------------|-----------------|
   . . . . . . . .   . . . . . . . .   . . . . . . . .   . . . . . . . . 

e|-----------------|-----------------|-----------------|-----------------|
B|-----------------|-----------------|-----------------|-----------------|
G|-5---------------|-5---------------|-7---------------|-7---------------|
D|-----------------|-----------------|-----------------|-----------------|
A|-3---------------|-3---------------|-5---------------|-5---------------|
E|-----------------|-----------------|-----------------|-----------------|
   . . . . . . . .   . . . . . . . .   . . . . . . . .   . . . . . . . . 

e|-----------------|-----------------|-----------------|-----------------|
B|-----------------|-----------------|-----------------|-----------------|
G|-9---------------|-9---------------|-16--------------|-16--------------|
D|-----------------|-----------------|-----------------|-----------------|
A|-7---------------|-7---------------|-14--------------|-14--------------|
E|-----------------|-----------------|-----------------|-----------------|
   . . . . . . . .   . . . . . . . .   . . . . . . . .   . . . . . . . . 

e|-----------------|-----------------|-----------------|-----------------|
B|-----------------|-----------------|-----------------|-----------------|
G|-5---------------|-5---------------|-7---------------|-7---------------|
D|-----------------|-----------------|-----------------|-----------------|
A|-3---------------|-3---------------|-5---------------|-5---------------|
E|-----------------|-----------------|-----------------|-----------------|
   . . . . . . . .   . . . . . . . .   . . . . . . . .   . . . . . . . . 

e|-----------------|-----------------|-----------------|-----------------|
B|-----------------|-----------------|-----------------|-----------------|
G|-9---------------|-9---------------|-4---------------|-12------11------|
D|-----------------|-----------------|-----------------|-----------------|
A|-7---------------|-7---------------|-2---------------|-10------9-------|
E|-----------------|-----------------|-----------------|-----------------|
   . . . . . . . .   . . . . . . . .   . . . . . . . .   . . . . . . . . 

e|-----------------|-----------------|-----------------|-----------------|
B|-----------------|-----------------|-----------------|-----------------|
G|-5---------------|-5---------------|-7---------------|-7---------------|
D|-----------------|-----------------|-----------------|-----------------|
A|-3---------------|-3---------------|-5---------------|-5---------------|
E|-----------------|-----------------|-----------------|-----------------|
   . . . . . . . .   . . . . . . . .   . . . . . . . .   . . . . . . . . 

e|-----------------|-----------------|-----------------|-----------------|
B|-----------------|-----------------|-----------------|-----------------|
G|-9---------------|-9---------------|-16--------------|-16--------------|
D|-----------------|-----------------|-----------------|-----------------|
A|-7---------------|-7---------------|-14--------------|-14--------------|
E|-----------------|-----------------|-----------------|-----------------|
   . . . . . . . .   . . . . . . . .   . . . . . . . .   . . . . . . . . 


Guitar 2 (Jared) - Overdrive
e|-----------------|-----------------|-----------------|-----------------|
B|-----------------|-----------------|-----------------|-----------------|
G|-----------------|-----------------|-----------------|-----------------|
D|-10--------------|-10--------------|-12--------------|-12--------------|
A|-10--------------|-10--------------|-12--------------|-12--------------|
E|-8---------------|-8---------------|-10--------------|-10--------------|
   . . . . . . . .   . . . . . . . .   . . . . . . . .   . . . . . . . . 

e|-----------------|-----------------|-----------------|-----------------|
B|-----------------|-----------------|-----------------|-----------------|
G|-----------------|-----------------|-----------------|-----------------|
D|-14--------------|-14--------------|-9---------------|-17------16------|
A|-14--------------|-14--------------|-9---------------|-----------------|
E|-12--------------|-12--------------|-7---------------|-15------14------|
   . . . . . . . .   . . . . . . . .   . . . . . . . .   . . . . . . . . 

e|-----------------|-----------------|-----------------|-----------------|
B|-----------------|-----------------|-----------------|-----------------|
G|-----------------|-----------------|-----------------|-----------------|
D|-10--------------|-10--------------|-12--------------|-12--------------|
A|-10--------------|-10--------------|-12--------------|-12--------------|
E|-8---------------|-8---------------|-10--------------|-10--------------|
   . . . . . . . .   . . . . . . . .   . . . . . . . .   . . . . . . . . 

e|-----------------|-----------------|-----------------|-----------------|
B|-----------------|-----------------|-----------------|-----------------|
G|-----------------|-----------------|-16--------------|-16--------------|
D|-14--------------|-14--------------|-----------------|-----------------|
A|-14--------------|-14--------------|-14--------------|-14--------------|
E|-12--------------|-12--------------|-----------------|-----------------|
   . . . . . . . .   . . . . . . . .   . . . . . . . .   . . . . . . . . 

e|-----------------|-----------------|-----------------|-----------------|
B|-----------------|-----------------|-----------------|-----------------|
G|-16--------------|-16--------------|-16--------------|-16--------------|
D|-----------------|-----------------|-----------------|-----------------|
A|-14--------------|-14--------------|-14--------------|-14--------------|
E|-----------------|-----------------|-----------------|-----------------|
   . . . . . . . .   . . . . . . . .   . . . . . . . .   . . . . . . . . 

e|-----------------|-----------------|-----------------|-----------------|
B|-----------------|-----------------|-----------------|-----------------|
G|-16--------------|-16--------------|-16--------------|-16--------------|
D|-----------------|-----------------|-----------------|-----------------|
A|-14--------------|-14--------------|-14--------------|-14--------------|
E|-----------------|-----------------|-----------------|-----------------|
   . . . . . . . .   . . . . . . . .   . . . . . . . .   . . . . . . . . 

e|-----------------|-----------------|-----------------|-----------------|
B|-----------------|-----------------|-----------------|-----------------|
G|-----------------|-----------------|-----------------|-----------------|
D|-10--------------|-10--------------|-12--------------|-12--------------|
A|-10--------------|-10--------------|-12--------------|-12--------------|
E|-8---------------|-8---------------|-10--------------|-10--------------|
   . . . . . . . .   . . . . . . . .   . . . . . . . .   . . . . . . . . 

e|-----------------|-----------------|-----------------|-----------------|
B|-----------------|-----------------|-----------------|-----------------|
G|-----------------|-----------------|-16--------------|-16--------------|
D|-14--------------|-14--------------|-----------------|-----------------|
A|-14--------------|-14--------------|-14--------------|-14--------------|
E|-12--------------|-12--------------|-----------------|-----------------|
   . . . . . . . .   . . . . . . . .   . . . . . . . .   . . . . . . . . 


When they play it live, the outro is changed. But I don't like it, so go with
the studio version of it. ;)




ORDER:
Intro
Verse 1
Chorus
Verse 2
Chorus
Chorus
Outro=Intro


SYMBOL KEY:
\   = Side Down
( ) = Palm Muted 
comments
print report bad tab
9 comments total. Showing first comments.
0 reply
Guitar_Guy00001 wrote on February 25 2006, 03:26 pm

not bad, but its kinda confusing... My suggestion would be to make a tab thats just for 1 guitar

0 reply
NutzBoutRock wrote on June 21 2006, 04:37 pm

not confusing at all very nice job.... you can just play it one half step higher to play it alongside the recorded version

0 reply
ninjuice wrote on August 10 2006, 04:18 pm

how the heck can you play the intro with THAT?

I want to post or [tab]
guest
You may want to rate the tab now too:
select rating
Please do not post tabs as comments. Select "correction" instead!