Oops, an error
Loading. Please wait.

Fantasy Tab

ver3
ver3

Whole song

Interactive

More versions @911Tabs.com
5,021 views 9 this week
no commentswrite comment
1 2 3 4 5
worth learning
x 3
Autoscroll
+/-
esc
set tempo
stop
Contributor
Difficulty
Tuning
intermediate
E A D G B E
Hey! There's an official Ultimate Guitar app which is ideal
for learning songs when you're away from computer. Get the app
WARNING: You are trying to view
                                    content from Ultimate-Guitar.com
                                    in an unauthorized application,
                                    which is prohibited.

                                    Please use an official Ultimate
                                    Guitar Tabs application for iPhone,
                                    iPad or Android to access legitimate
                                    chords, guitar, bass, and drum tabs
                                    from Ultimate-Guitar.com database.

                                    Type "ultimate guitar tabs" in Apple
                                    App Store's or Android Market's
                                    search to find the application.
30 Seconds To Mars - The Fantasy

Tabbed by: sirpatrick3

Email: johnson3275@yahoo.com

Tuning: Eb G# C# F# Bb Eb
        (half-step down)

e|--------------------------------------------|
B|--------------------------------------------|
G|--------------------------------------------|
D|-9--9--9--9--9--9--9--7--7--7--7--9--10--9--|
A|--------------------------------------------|
E|--------------------------------------------|

e|--------------------------------------------|
B|--------------------------------------------|
G|--------------------------------------------|
D|-4--4--5--5--5--7--7--7--5--5--5--4---------|
A|--------------------------------------------|
E|--------------------------------------------|

e|--------------------------------------------|
B|--------------------------------------------|
G|--------------------------------------------|
D|-9--9--9--9--9--9--9--7--7--7--7--9--10--9--|
A|--------------------------------------------|
E|--------------------------------------------|

e|-------------------|
B|-------------------|
G|-------------------|
D|-4--4--5--5--5--7--|
A|-------------------|
E|-------------------|

e|----------------------------------------------|
B|----------------------------------------------|
G|-------------------5--------------------5-----|
D|-7--7--7--7--r--7-----7--7--7--7--7--7-----7--|
A|----------------------------------------------|
E|----------------------------------------------|

e|----------------------------------------------|
B|----------------------------------------------|
G|-------------------5--------------------5-----| x3
D|-7--7--7--7--7--7-----7--7--7--7--7--7-----7--|
A|----------------------------------------------|
E|----------------------------------------------|

e|-------------------------|
B|-------------------------|
G|-10--10--10--10--10--10--| 
D|-10--10--10--10--10--10--|
A|--8---8---8---8---8---8--|
E|-------------------------|

e|----------------------------------------------|
B|----------------------------------------------|
G|-------------------5--------------------5-----| 
D|-7--7--7--7--7--7-----7--7--7--7--7--7-----7--| x2
A|----------------------------------------------|
E|----------------------------------------------|

e|----------------------------------------------|
B|----------------------------------------------|
G|-------------------5--------------------5-----| 
D|-7--7--7--7--r--7-----7--7--7--7--7--7-----7--| 
A|----------------------------------------------|
E|----------------------------------------------|
                                          
e|----------------------------------|
B|----------------------------------|
G|-9--9--r--9--9--r--9--9--r--9--9--|
D|-9--9-----9--9-----9--9-----9--9--|
A|-7--7-----7--7-----7--7-----7--7--|
E|----------------------------------|

e|-------------------------------------------------------|
B|-------------------------------------------------------|
G|-------------------------------------------------------|
D|-14p12------14--12------14--14p12------14--12------14--| x3
A|--------12----------12-------------12----------12------|
E|-------------------------------------------------------|

e|---------------------------------|
B|---------------------------------|
G|---------------------------------| 
D|-14--14--14--14--14--14--14--14--| 
A|-14--14--14--14--14--14--14--14--|
E|-12--12--12--12--12--12--12--12--|

e|------------------------------------|
B|------------------------------------|
G|------------------------------------| 
D|-14--14--14[b]--14--14--14--14--14--| 
A|-14--14--14[b]--14--14--14--14--14--|
E|-12--12--12[b]--12--12--12--12--12--|

e|--------------------------------------------|
B|--------------------------------------------|
G|--------------------------------------------|
D|-9--9--9--9--9--9--9--7--7--7--7--9--10--9--|
A|--------------------------------------------|
E|--------------------------------------------|

e|--------------------------------------------|
B|--------------------------------------------|
G|--------------------------------------------|
D|-4--4--5--5--5--7--7--7--5--5--5--4---------|
A|--------------------------------------------|
E|--------------------------------------------|

e|--------------------------------------------|
B|--------------------------------------------|
G|--------------------------------------------|
D|-9--9--9--9--9--9--9--7--7--7--7--9--10--9--|
A|--------------------------------------------|
E|--------------------------------------------|

e|-------------------|
B|-------------------|
G|-------------------|
D|-4--4--5--5--5--7--|
A|-------------------|
E|-------------------|

e|-------------------------------------|
B|----------5--5--6-----------5--5-----|
G|----------------------------------5--| 
D|-7--7--7-----------7--7--7-----------|
A|-------------------------------------|
E|-------------------------------------|

e|-------------------------------------|
B|----------5-----5-----------5-----5--|
G|-------------------------------------| x2
D|-7--7--7-----7-----7--7--7-----7-----|
A|-------------------------------------|
E|-------------------------------------|

e|---------------------------------------------|
B|----------5----5--r--10--10--10--10--10--10--|
G|---------------------10--10--10--10--10--10--| 
D|-7--7--7----7---------8---8---8---8---8---8--|
A|---------------------------------------------|
E|---------------------------------------------|

e|-------------------------------------|
B|----------5-----5-----------5-----5--|
G|-------------------------------------| 
D|-7--7--7-----7-----7--7--7-----7-----| x3
A|-------------------------------------|
E|-------------------------------------|

e|----------------------------------|
B|----------------------------------|
G|-9--9--r--9--9--r--9--9--r--9--9--|
D|-9--9-----9--9-----9--9-----9--9--|
A|-7--7-----7--7-----7--7-----7--7--|
E|----------------------------------|

e|-------------------------------------------------------|
B|-------------------------------------------------------|
G|-------------------------------------------------------|
D|-14p12------14--12------14--14p12------14--12------14--| x3
A|--------12----------12-------------12----------12------|
E|-------------------------------------------------------|

e|-------------------------|
B|-------------------------|
G|-------------------------| 
D|-14--14--14--14--14--x\--| x2
A|-14--14--14--14--14--x\--|
E|-12--12--12--12--12--x\--|

e|-----------------------------------------------|
B|-----------------------------------------------|
G|-5--5--5--5-7--7--7--7-------------------------|
D|-5--5--5--5/7--7--7--7\2--2--2--2--2--2--2--2--|
A|-3--3--3--3/5--5--5--5\2--2--2--2--2--2--2--2--|
E|-----------------------0--0--0--0--0--0--0--0--|

e|------------------------------|
B|------------------------------|
G|-5--5--5--5/7--7--7--x--x--x--|
D|-5--5--5--5/7--7--7--x--x--x--|
A|-3--3--3--3/5--5--5--x--x--x--|
E|------------------------------|

e|----------------------------------------|
B|----------------------------------------|
G|-9--9--9--9--x--9--9--9--9--9--9--9--x--|
D|-9--9--9--9--x--9--9--9--9--9--9--9--x--|
A|-7--7--7--7--x--7--7--7--7--7--7--7--x--|
E|----------------------------------------|

e|----------------------------------------------|
B|----------------------------------------------|
G|-9--9--9--9--9--9--9--x--9--9--9--9--9--9--9--|
D|-9--9--9--9--9--9--9--x--9--9--9--9--9--9--9--|
A|-7--7--7--7--7--7--7--x--7--7--7--7--7--7--7--|
E|----------------------------------------------|
                                  
e|-------------------------------------|
B|-------------------------------------|
G|-9--9--9--9/11--11--11--11/12--12\x--|
D|-9--9--9-----------------------------|
A|-7--7--7--7/9---9---9----9/10--10\x--|
E|-------------------------------------|

e|------------------------|
B|------------------------|
G|-5---7-------5---7---9--|
D|-5---7---2---5---7---9--|
A|-3---5---2---3---5---7--|
E|---------0--------------|

e|--------------|
B|--------------|
G|-9---------5--|
D|-9---------5--| x4
A|-7---------3--|
E|--------------|

e|-------------------------|
B|-------------------------|
G|-------------------------| 
D|-5--5--4--4--------------| x4
A|-------------3--3--2--2--|
E|-------------------------|

e|----------------|
B|----------------|
G|-x--x--x--x--x--| 
D|-x--x--x--x--x--|
A|-x--x--x--x--x--|
E|----------------|

e|-----------------------------------------------------|
B|-----------------------------------------------------|
G|-5--5--5--5/7--7--7--7-------------------------------|
D|-5--5--5--5/7--7--7--7\2--2--2--2--2--r--2--2--2--2--|
A|-3--3--3--5/5--5--5--5\2--2--2--2--2-----2--2--2--2--|
E|-----------------------0--0--0--0--0-----0--0--0--0--|

e|--------------------------|
B|--------------------------|
G|-5--5--5--5/7--7--7--7/9--|
D|-5--5--5--5/7--7--7--7/9--|
A|-3--3--3--3/5--5--5--5/7--|
E|--------------------------|

e|-------------------------|
B|-------------------------|
G|-9--9--9--9--9--9--9--9--|
D|-9--9--9--9--9--9--9--9--| x2
A|-7--7--7--7--7--7--7--7--|
E|-------------------------|

e|-------------------------|
B|-------------------------|
G|-5--5--5--5/7--7--7--7/9-|
D|-5--5--5--5/7--7--7--7/9-|
A|-3--3--3--3/5--5--5--5/7-|
E|-------------------------|

e|----------------------------------------------------|
B|----------------------------------------------------|
G|-9--9--9--9--x--9--9--9--x--9--9--9--9--9--9--9--9--|
D|-9--9--9--9--x--9--9--9--x--9--9--9--9--9--9--9--9--| 
A|-7--7--7--7--x--7--7--7--x--7--7--7--7--7--7--7--7--|
E|----------------------------------------------------|

e|-------------------------|
B|-------------------------|
G|-5--5--5--5/7--7--7--7/9-|
D|-5--5--5--5/7--7--7--7/9-|
A|-3--3--3--3/5--5--5--5/7-|
E|-------------------------|

e|------------------------------------------------|
B|----------------------------12--12--13--13------|
G|-9--9--9--9--9--9--9--9--9------------------12\-|
D|-9--9--9--9--9--9--9--9--9----------------------|
A|-7--7--7--7--7--7--7--7--7----------------------|
E|------------------------------------------------|

e|-----------------------------------------------|
B|-----------------------------------------------|
G|-5--5--5--5/7--7--7--7-------------------------| 
D|-5--5--5--5/7--7--7--7\2--2--2--2--2--2--2--2--| x3
A|-3--3--3--5/5--5--5--5\2--2--2--2--2--2--2--2--|
E|-----------------------0--0--0--0--0--0--0--0--|

e|---------------------------|
B|---------------------------|
G|-5--5--5--5/7--7--x--x--x--| 
D|-5--5--5--5/7--7--x--x--x--|
A|-3--3--3--5/5--5--x--x--x--|
E|---------------------------|

e|----------------------------------------|
B|----------------------------------------|
G|-9--9--9--9--x--9--9--9--x--9--9--9--9--|
D|-9--9--9--9--x--9--9--9--x--9--9--9--9--| 
A|-7--7--7--7--x--7--7--7--x--7--7--7--7--|
E|----------------------------------------|
                                          
e|----------------------------------------------|
B|----------------------------------------------|
G|-9--9--9--9--9--9--9--x--9--9--9--9--9--9--9--|
D|-9--9--9--9--9--9--9--x--9--9--9--9--9--9--9--|
A|-7--7--7--7--7--7--7--x--7--7--7--7--7--7--7--|
E|----------------------------------------------|

e|----------------------------------------------|
B|----------8--8--8--8--x--8--8--8--8--8--8--8--|
G|-9--9--9--9--9--9--9--x--9--9--9--9--9--9--9--|
D|-9--9--9--9--9--9--9--x--9--9--9--9--9--9--9--|
A|-7--7--7--7--7--7--7--x--7--7--7--7--7--7--7--|
E|----------------------------------------------|

e|----------------------------------------------|
B|-8--8--8--8--8--8--8--x--8--8--8--5--5--5--5--|
G|-9--9--9--9--9--9--9--x--9--9--9--9--9--9--9--|
D|-9--9--9--9--9--9--9--x--9--9--9--9--9--9--9--|
A|-7--7--7--7--7--7--7--x--7--7--7--7--7--7--7--|
E|----------------------------------------------|
comments
We did not receive enough feedback on this tab! Please rate:
print report bad tab
1 2 3 4 5
I want to post or [tab]
guest
You may want to rate the tab now too:
select rating
Please do not post tabs as comments. Select "correction" instead!