Oops, an error
Loading. Please wait.

Ill Attack Tab

ver2
ver2

Whole song

More versions @911Tabs.com
2,359 views 3 this week
no commentswrite comment
1 2 3 4 5
please rate
Autoscroll
+/-
esc
set tempo
stop
Contributor
Difficulty
Tuning
intermediate
D A D G B E
Hey! There's an official Ultimate Guitar app which is ideal
for learning songs when you're away from computer. Get the app
WARNING: You are trying to view
                                    content from Ultimate-Guitar.com
                                    in an unauthorized application,
                                    which is prohibited.

                                    Please use an official Ultimate
                                    Guitar Tabs application for iPhone,
                                    iPad or Android to access legitimate
                                    chords, guitar, bass, and drum tabs
                                    from Ultimate-Guitar.com database.

                                    Type "ultimate guitar tabs" in Apple
                                    App Store's or Android Market's
                                    search to find the application.
Band: 30 Seconds To Mars
Song: A Beautiful Lie
Tuning: Drop D [DADGBE]

Posted By: Andreas Karlsson From Chronic Desire [E-Mail: linkinparker_15@hotmail.com]

Intro [its keyboard but u can play it like this on youre guitar with echo/chorus & delay effect]
e|---------------8-|---------------8-|---------------8-|--------------8--|
b|--8986-8-6-8-6---|--8986-8-6-8-6---|--8986-8-6-8-6---|-8986-8-6-8-6----|
g|-----------------|-----------------|-----------------|-----------------|
d|66666-66-6-66----|55555-55-5-55----|33333-33-3-33----|33333-33-3-33----| 
a|-----------------|-----------------|-----------------|-----------------|
D|-----------------|-----------------|------- -> overtone can be 2 guitar|

[Verse 1] Guitar 1 [Tomo]
e|-----------------|-----------------|-----------------|-----------------|
b|-----------------|-----------------|-----------------|---------13------|
g|-13--------------|-13--------------|-12--------------|-10------10------|
d|--x--------------|--x--------------|--x--------------|--x-------x------|
a|-11--------------|-11--------------|-10--------------|-10------10------|
D|-----------------|-----------------|-----------------|-----------------|
 
e|-----------------|-----------------|-----------------|-----------------|
b|-----------------|-----------------|-----------------|-----------------|
g|-13--------------|-13--------------|-13--------------|-13--------------|
d|--x--------------|--x--------------|--x--------------|--x--------------|
a|-11--------------|-11--------------|-11--------------|-11--------------|
D|-----------------|-----------------|-----------------|-----------------|
  
e|-----------------|-----------------|-----------------|-----------------|
b|-----------------|-----------------|-----------------|---------13------|
g|-13--------------|-13--------------|-12--------------|-10------10------|
d|--x--------------|--x--------------|--x--------------|--x-------x------|
a|-11--------------|-11--------------|-10--------------|-10------10------|
D|-----------------|-----------------|-----------------|-----------------|
  
e|-----------------|-----------------|-----------------|-----------------|
b|-13--------------|-13--------------|-----------------|-----------------|
g|-13--------------|-13--------------|-----------------|-----------------|
d|--x--------------|--x--------------|---------------[Rest]--------------|
e|-11--------------|-11--------------|-----------------|-----------------|
D|-----------------|-----------------|-----------------|-----------------|
   
[Verse 1] Guitar 2 [Jared]
e|-----------------|-----------------|-----------------|-----------------|
b|-----------------|-----------------|-----------------|-----------------|
g|-----------------|-----------------|-----------------|-----------------|
d|-----------------|---------------[Rest]--------------|-----------------|
a|-----------------|-----------------|-----------------|-----------------|
D|-----------------|-----------------|-----------------|-----------------|
 
e|-----------------|-----------------|-----------------|-----------------|
b|-----------------|-----------------|-----------------|-----------------|
g|-----------------|-----------------|-----------------|-----------------|
d|-----------------|---------------[Rest]--------------|-----------------|
a|-----------------|-----------------|-----------------|-----------------|
D|-----------------|-----------------|-----------------|-----------------|
  
e|-----------------|-----------------|-----------------|-----------------|
b|-----------------|-----------------|-----------------|-----------------|
g|-13-13--13-13-13-|-13-13--13-13-13-|-1212121212121212|-1212121212121212|
d|--x--x---x--x--x-|--x--x---x--x--x-|--x-x-x-x-x-x-x-x|--x-x-x-x-x-x-x-x|
a|-11-11--11-11-11-|-11-11--11-11-11-|-1010101010101010|-1010101010101010|
D|-----------------|-----------------|-----------------|-----------------|
  
e|-----------------|-----------------|-----------------|-----------------|
b|-----------------|-----------------|-----------------|-----------------|
g|-1010101010101010|-10101010101010--|-----------------|-----------------|
d|-x-x-x-x-x-x-x-x-|-x-x-x-x-x-x-x---|---------------[Rest]--------------|
a|-8-8-8-8-8-8-8-8-|-8-8-8-8-8-8-8---|-----------------|-----------------|
D|-----------------|-----------------|-----------------|-----------------|

[Chorus 1] Guitar 1 [Tomo]
e|-----------------|-----------------|-----------------|-----------------|
b|-----------------|-----------------|-----------------|-----------------|
g|-6---------------|-8---------------|-10--------------|-5---------------|
d|-6---------------|-8---------------|-10--------------|-5---------------|
a|-4---------------|-6---------------|-8---------------|-3---------------|
D|-----------------|-----------------|-----------------|-----------------|
 
e|-----------------|-----------------|-----------------|-----------------|
b|-----------------|-----------------|-----------------|-----------------|
g|-6---------------|-8---------------|-10--------------|-17--------------|
d|-6---------------|-8---------------|-10--------------|-17--------------|
a|-4---------------|-6---------------|-8---------------|-15--------------|
D|-----------------|-----------------|-----------------|-----------------|
  
[Chorus 1] Guitar 2 [Jared]
e|-----------------|-----------------|-----------------|-----------------|
b|-----------------|-----------------|-----------------|-----------------|
g|-----------------|-----------------|-----------------|------13--12-----|
d|-11--------------|-13--------------|-15--------------|-10----x---x-----|
a|-11--------------|-13--------------|-15--------------|-10---11--10-----|
D|-11--------------|-13--------------|-15--------------|-10--------------|
 
e|-----------------|-----------------|-----------------|-----------------|
b|-----------------|-----------------|-----------------|-----------------|
g|-----------------|-----------------|-----------------|-17--------------|
d|-11--------------|-13--------------|-15--------------|--x--------------|
a|-11--------------|-13--------------|-15--------------|-15--------------|
D|-11--------------|-13--------------|-15--------------|-----------------|

[Pre Verse]
e|---------------8|
b|--8986-8-6-8-6--|
g|----------------|
d|66666-66-6-66---| -> overtone can be 2 guitar
a|----------------|
D|----------------|

[Verse 2] Guitar 1 [Tomo]
e|-----------------|-----------------|-----------------|-----------------|
b|-----------------|-----------------|-----------------|---------13------|
g|-13--------------|-13--------------|-12--------------|-10------10------|
d|--x--------------|--x--------------|--x--------------|--x-------x------|
a|-11--------------|-11--------------|-10--------------|-10------10------|
D|-----------------|-----------------|-----------------|-----------------|
 
e|-----------------|-----------------|-----------------|-----------------|
b|-----------------|-----------------|-----------------|-----------------|
g|-13--------------|-13--------------|-----------------|-----------------|
d|--x--------------|--x--------------|---------------[Rest]--------------|
a|-11--------------|-11--------------|-----------------|-----------------|
D|-----------------|-----------------|-----------------|-----------------|
  
e|-----------------|-----------------|-----------------|-----------------|
b|-----------------|-----------------|-----------------|---------13------|
g|-13--------------|-13--------------|-12--------------|-10------10------|
d|--x--------------|--x--------------|--x--------------|--x-------x------|
a|-11--------------|-11--------------|-10--------------|-10------10------|
D|-----------------|-----------------|-----------------|-----------------|
  
e|-----------------|-----------------|-----------------|-----------------|
b|-13--------------|-13--------------|-----------------|-----------------|
g|-13--------------|-13--------------|-----------------|-----------------|
d|--x--------------|--x--------------|---------------[Rest]--------------|
e|-11--------------|-11--------------|-----------------|-----------------|
D|-----------------|-----------------|-----------------|-----------------|

[Verse 2] Guitar 2 [Jared]
e|-----------------|-----------------|-----------------|-----------------|
b|-----------------|-----------------|-----------------|-----------------|
g|-13-13--13-13-13-|-13-13--13-13-13-|-1212121212121212|-1212121212121212|
d|--x--x---x--x--x-|--x--x---x--x--x-|--x-x-x-x-x-x-x-x|--x-x-x-x-x-x-x-x|
a|-11-11--11-11-11-|-11-11--11-11-11-|-1010101010101010|-1010101010101010|
D|-----------------|-----------------|-----------------|-----------------|
  
e|-----------------|-----------------|-----------------|-----------------|
b|-----------------|-----------------|-----------------|-----------------|
g|-1010101010101010|-10101010101010--|-----------------|-----------------|
d|-x-x-x-x-x-x-x-x-|-x-x-x-x-x-x-x---|---------------[Rest]--------------|
a|-8-8-8-8-8-8-8-8-|-8-8-8-8-8-8-8---|-----------------|-----------------|
D|-----------------|-----------------|-----------------|-----------------|
   
e|-----------------|-----------------|-----------------|-----------------|
b|-----------------|-----------------|-----------------|-----------------|
g|-13-13--13-13-13-|-13-13--13-13-13-|-1212121212121212|-1212121212121212|
d|--x--x---x--x--x-|--x--x---x--x--x-|--x-x-x-x-x-x-x-x|--x-x-x-x-x-x-x-x|
a|-11-11--11-11-11-|-11-11--11-11-11-|-1010101010101010|-1010101010101010|
D|-----------------|-----------------|-----------------|-----------------|
  
e|-----------------|-----------------|-----------------|-----------------|
b|-----------------|-----------------|-----------------|-----------------|
g|-1010101010101010|-10101010101010--|-18-18--18-18-18-|-18--19-19-19-19-|
d|-x-x-x-x-x-x-x-x-|-x-x-x-x-x-x-x---|--x--x---x--x--x-|--x---x--x--x--x-|
a|-8-8-8-8-8-8-8-8-|-8-8-8-8-8-8-8---|-15-15--15-15-15-|-15--16-16-16-16-|
D|-----------------|-----------------|-----------------|-----------------|

[Chorus 2] Guitar 1 [Tomo]
e|-----------------|-----------------|-----------------|-----------------|
b|-----------------|-----------------|-----------------|-----------------|
g|-6---------------|-8---------------|-10--------------|-5---------------|
d|-6---------------|-8---------------|-10--------------|-5---------------|
a|-4---------------|-6---------------|-8---------------|-3---------------|
D|-----------------|-----------------|-----------------|-----------------|
 
e|-----------------|-----------------|-----------------|-----------------|
b|-----------------|-----------------|-----------------|-----------------|
g|-6---------------|-8---------------|-10--------------|-17--------------|
d|-6---------------|-8---------------|-10--------------|-17--------------|
a|-4---------------|-6---------------|-8---------------|-15--------------|
D|-----------------|-----------------|-----------------|-----------------|
  
[Chorus 2] Guitar 2 [Jared]
e|-----------------|-----------------|-----------------|-----------------|
b|-----------------|-----------------|-----------------|-----------------|
g|-----------------|-----------------|-----------------|------13--12-----|
d|-11--------------|-13--------------|-15--------------|-10----x---x-----|
a|-11--------------|-13--------------|-15--------------|-10---11--10-----|
D|-11--------------|-13--------------|-15--------------|-10--------------|
 
e|-----------------|-----------------|-----------------|-----------------|
b|-----------------|-----------------|-----------------|-----------------|
g|-----------------|-----------------|-----------------|-17--------------|
d|-11--------------|-13--------------|-15--------------|--x--------------|
a|-11--------------|-13--------------|-15--------------|-15--------------|
D|-11--------------|-13--------------|-15--------------|-----------------|

Bridge [Keyboard] Overtunes Guitar 2 [Tomo] Guitar = Palm Muted
e|---------------8-|---------------8-|---------------8-|--------------8--|
b|--8986-8-6-8-6---|--8986-8-6-8-6---|--8986-8-6-8-6---|-8986-8-6-8-6----|
g|-----------------|-----------------|-----------------|-----------------|
d|66666666666666666|55555555555555555|33333333333333333|33333333333333333|
a|-----------------|-----------------|-----------------|-----------------|
D|66666666666666666|55555555555555555|33333333333333333|33333333333333333|

e|---------------8-|---------------8-|---------------8-|-----------------|
b|--8986-8-6-8-6---|--8986-8-6-8-6---|--8986-8-6-8-6---|-----------------|
g|-----------------|-----------------|-----------------|------[Rest]-----|
d|66666666666666666|55555555555555555|33333333333333333|-----------------|
a|-----------------|-----------------|-----------------|-----------------|
D|66666666666666666|55555555555555555|33333333333333333|-----------------|

[Chorus 3] Guitar 1 [Tomo]
e|-----------------|-----------------|-----------------|-----------------|
b|-----------------|-----------------|-----------------|-----------------|
g|-6---------------|-8---------------|-10--------------|-5---------------|
d|-6---------------|-8---------------|-10--------------|-5---------------|
a|-4---------------|-6---------------|-8---------------|-3---------------|
D|-----------------|-----------------|-----------------|-----------------|
 
e|-----------------|-----------------|-----------------|-----------------|
b|-----------------|-----------------|-----------------|-----------------|
g|-6---------------|-8---------------|-10--------------|-17--------------|
d|-6---------------|-8---------------|-10--------------|-17--------------|
a|-4---------------|-6---------------|-8---------------|-15--------------|
D|-----------------|-----------------|-----------------|-----------------|
  
[Chorus 3] Guitar 2 [Jared]
e|-----------------|-----------------|-----------------|-----------------|
b|-----------------|-----------------|-----------------|-----------------|
g|-----------------|-----------------|-----------------|------13--12-----|
d|-11--------------|-13--------------|-15--------------|-10----x---x-----|
a|-11--------------|-13--------------|-15--------------|-10---11--10-----|
D|-11--------------|-13--------------|-15--------------|-10--------------|
 
e|-----------------|-----------------|-----------------|-----------------|
b|-----------------|-----------------|-----------------|-----------------|
g|-----------------|-----------------|-----------------|-17--------------|
d|-11--------------|-13--------------|-15--------------|--x--------------|
a|-11--------------|-13--------------|-15--------------|-15--------------|
D|-11--------------|-13--------------|-15--------------|-----------------|

Outro [its keyboard but u can play it like this on youre guitar with echo/chorus & delay effect]
e|---------------8-|---------------8-|---------------8-|--------------8--|
b|--8986-8-6-8-6---|--8986-8-6-8-6---|--8986-8-6-8-6---|-8986-8-6-8-6----|
g|-----------------|-----------------|-----------------|-----------------|
d|66666-66-6-66----|55555-55-5-55----|33333-33-3-33----|33333-33-3-33----| 
a|-----------------|-----------------|-----------------|-----------------|
D|-----------------|-----------------|------- -> overtone can be 2 guitar|
comments
We did not receive enough feedback on this tab! Please rate:
print report bad tab
1 2 3 4 5
I want to post or [tab]
guest
You may want to rate the tab now too:
select rating
Please do not post tabs as comments. Select "correction" instead!