Oops, an error
Loading. Please wait.

Kings And Queens Bass Tab

ver2
ver2

Whole song

More versions @911Tabs.com
14,001 views 36 this week
1 commentread comment
1 2 3 4 5
accurate
x 7
Autoscroll
+/-
esc
set tempo
stop
Contributor
Difficulty
Tuning
novice
D A D G B E
WARNING: You are trying to view
                                    content from Ultimate-Guitar.com
                                    in an unauthorized application,
                                    which is prohibited.

                                    Please use an official Ultimate
                                    Guitar Tabs application for iPhone,
                                    iPad or Android to access legitimate
                                    chords, guitar, bass, and drum tabs
                                    from Ultimate-Guitar.com database.

                                    Type "ultimate guitar tabs" in Apple
                                    App Store's or Android Market's
                                    search to find the application.
Is not 100% right, but I did my best :D.

Drop D tuning

Intro/Chorus:
G|------------------------------------|
D|------------------------------------|                    |
A|------------------------------------|                    |
D|-11111111-33333333-6666666666666666-|                    |
                                                           | x2
G|------------------------------------|                    |
D|----------------------------8888888-|                    |
A|------------------------------------|                    |
D|-11111111-33333333-666666666--------|

Verse:
No bass

Chorus:
G|------------------------------------|
D|------------------------------------|                    |
A|------------------------------------|                    |
D|-11111111-33333333-6666666666666666-|                    |
                                                           | x2
G|------------------------------------|                    |
D|----------------------------8888888-|                    |
A|------------------------------------|                    |
D|-11111111-33333333-666666666--------|

Post-Chorus:
G|------------------------------------|
D|-1111111111111111-------------------|
A|------------------------------------|
D|------------------6666666666666666--|

Verse:
G|------------------------------------------|
D|-1(x32)-----------------------------------|  
A|--------4444444444444444------------------|
D|-------------------------6666666666666666-| 

G|------------------------------------------|
D|-1(x32)-----------------------------------|  
A|--------4444444444444444/11(x16)----------|
D|------------------------------------------| 
 
G|----------------------------------------------|
D|----------------------------------------------|  
A|-6(x29)/888-4444444444444/666-----------------|
D|-----------------------------6666666666666666-|  

G|----------------------------------------------|
D|----------------------------------------------|  
A|-6(x29)/888-4444444444444/666/11(x14)\1-------| <= Slide from
D|----------------------------------------------|    11 to 1 fast

Chorus:
G|------------------------------------|
D|------------------------------------|   
A|------------------------------------|   
D|-11111111-33333333-6666666666666666-|  
                                          
G|------------------------------------|    
D|----------------------------8888888-|  
A|------------------------------------|   
D|-11111111-33333333-666666666--------|

G|------------------------------------|
D|------------------------------------|
A|-11111111---------------------------|
D|----------33333333-6666666666666666-|

G|------------------------------------|
D|---1---3--6(6)66-8888888888888888---|   
A|------------------------------------|   
D|-11-1-3-3---------------------------|  

Bridge:
No bass

Pre-Chorus:
G|------------------------------------|
D|-1h3--------------------------------| 1 hammer on 3   
A|------------------------------------|   
D|------------------------------------|  

Chorus:
G|------------------------------------|
D|------------------------------------|                    |re-
A|------------------------------------|                    |peat
D|-11111111-33333333-6666666666666666-|                    |until
                                                           | end.
G|------------------------------------|                    |
D|----------------------------8888888-|                    |
A|------------------------------------|                    |
D|-11111111-33333333-666666666--------|

Fade out: 
G|------------------------------------|
D|------------------------------------|
A|------------------------------------| 
D|-1~/6~\1~/6~\3~/6~-1~---------------|

Don't forget to rate :D
1 comment total.
0 reply
Tease wrote on January 27 2010, 09:12 am

I'd say you've done a great job getting this tab sounding right my only critism is your decession to add the D)string)- 8 near end of song, dont think it fits. Fantastic though!

I want to post or [tab]
guest
You may want to rate the tab now too:
select rating
Please do not post tabs as comments. Select "correction" instead!