Oops, an error
Loading. Please wait.

Kings And Queens Tab

ver4
ver4

Whole song

Interactive

More versions @911Tabs.com
2,899 views 1 this week
2 commentsread comments
1 2 3 4 5
worth learning
x 1
Autoscroll
+/-
esc
set tempo
stop
Contributor
Difficulty
Tuning
intermediate
D# G# C# F# A# D#
Hey! There's an official Ultimate Guitar app which is ideal
for learning songs when you're away from computer. Get the app
WARNING: You are trying to view
                                    content from Ultimate-Guitar.com
                                    in an unauthorized application,
                                    which is prohibited.

                                    Please use an official Ultimate
                                    Guitar Tabs application for iPhone,
                                    iPad or Android to access legitimate
                                    chords, guitar, bass, and drum tabs
                                    from Ultimate-Guitar.com database.

                                    Type "ultimate guitar tabs" in Apple
                                    App Store's or Android Market's
                                    search to find the application.
All Guitars Half Step Down

Watch the BBC live video of this, it shows Rhythm Guitar doesn't
play powerchords, and shows the third guitar playing octaves.
I don't think any other parts are up for debate, and
I didn't really show any of the slides

Intro

Guitar Palm Muted
e|-----------------------------------------------------------------|
b|-----------------------------------------------------------------|
g|-----------------------------------------------------------------| 3x
d|-----------------------------------------------------------------|
a|-7-7-7-7-7-7-7-7-7-7-7-7-7-7-7-7-7-7-7-7-7-7-7-7-7-7-7-7-7-7-7-7-|  Vol Swell Third Time
E|-----------------------------------------------------------------|

Piano
e|-----------------------------------------------------------------|
b|-----------------------------------------------------------------|
g|-9-------------------------------7-------------------------------|
d|-9-------------------------------7-------------------------------| 2x
a|-----------------------------------------------------------------|
E|-----------------------------------------------------------------|


Intro/Chorus  Guitar 1 (Rhtyhm Guitar 2 on the bottom for shortness purposes)

Lead (G1)
e|-----------------------------------------------------------------|
b|-------12---12--------12-----12--------9-----9---------9-----9---|
g|-9-9-9----9-----9-9-9------9-----9-9-9-----9-----9-9-9-----9-----|
d|-----------------------------------------------------------------|
a|-----------------------------------------------------------------|
E|-0-0-0-0-0-0-0-0-2-2-2-2-2-2-2-2-5-5-5-5-5-5-5-5-5-5-5-5-5-5-5-5-|

G1
e|-----------------------------------------------------------------|
b|-------12----12--------12----12--------9-----9---------10----10--|
g|-9-9-9-----9-----9-9-9-----9-----9-9-9-----9-----9-9-9-----9-----|
d|-----------------------------------------------------------------|
a|-----------------------------------------------------------------|
E|-0-0-0-0-0-0-0-0-2-2-2-2-2-2-2-2-5-5-5-5-5-5-5-5-5-7-0-0-7-0-7\--|

G1
e|-----------------------------------------------------------------|
b|-9-9-91010101212-9-9-91010101212-9-9-91010101212-9-9-91010101212-|
g|-----------------------------------------------------------------|
d|-----------------------------------------------------------------|
a|-----------------------------------------------------------------|
d|-0-0-0-0-0-0-0-0-2-2-2-2-2-2-2-2-5-5-5-5-5-5-5-5-5-5-5-5-5-5-5-5-|


G1
e|---------------------------------12121212121212121212121212121212|
b|-9-9-91010101212-9-9-91010101212-12121212121212121212121212121212|
g|-----------------------------------------------------------------|
d|-----------------------------------------------------------------|
a|-----------------------------------------------------------------|
d|-0-0-0-0-0-0-0-0-2-2-2-2-2-2-2-2-5-5-5-5-5-5-5-5-5-7-7-7-7-7-7-7-|




Verse 1

G1
e|-12\-------------------------------------------------------------|
b|-12\-------9-10-----10-9----9-10----10-9----9-10----10-9----9----|
g|---------9--------9-------9-------9-------9-------9-------9---9--|
d|-----------------------------------------------------------------|
a|-----------------------------------------------------------------|
d|-7\--------------------------------------------------------------|

Piano
e|-----------------------------------------------------------------|
b|-----------------------------------------------------------------|
g|-9---------------------------------------------------------------|
d|-9---------------------------------------------------------------|
a|-----------------------------------------------------------------|
E|-----------------------------------------------------------------|

e|-----------------------------------------------------------------|
b|-----------------------------------------------------------------|
g|-7---------------------------------------------------------------|
d|-7---------------------------------------------------------------|
a|-----------------------------------------------------------------|
E|-----------------------------------------------------------------|

G1
e------------------------------------------------------------------|
b-------12-----10-9----9-10----10-9----9-10----10-9----9-10----9---|
g--9-9-9-----9-------9-------9-------9-------9-------9-------9---9-|
d------------------------------------------------------------------|
a------------------------------------------------------------------|
d------------------------------------------------------------------|

Piano
e|-----------------------------------------------------------------|
b|-----------------------------------------------------------------|
g|-9---------------------------------------------------------------|
d|-9---------------------------------------------------------------|
a|-----------------------------------------------------------------|
E|-----------------------------------------------------------------|

e|-----------------------------------------------------------------|
b|-----------------------------------------------------------------|
g|-7---------------------------------------------------------------|
d|-7-------------------------------7-------------------------------|
a|---------------------------------7-------------------------------|
E|-----------------------------------------------------------------|

PreChorus

G1
e------------------------------------------------------------------|
b-------12----12---------12----12--------12----12--------12----12--|
g-9-9-9-----9------9-9-9-----9-----9-9-9-----9-----9-9-9-----9-----|
d------------------------------------------------------------------|
a------------------------------------------------------------------|
d------------------------------------------------------------------|
Piano/Synth
e|-12------12------12------12------12------12------12------12------|
b|---1210-9--1210-9--1210-9--1210-9--1210-9--1210-9--1210-9--12109-|
g|-----------------------------------------------------------------|
d|-----------------------------------------------------------------|
a|-----------------------------------------------------------------|
E|-----------------------------------------------------------------|


G1
e|-----------------------------------------------------------------|
b|---12------12------12------12------12------12------12------12----|
g|-9---9-9-9---9-9-9---9-9-9---9-9-9---9-9-9---9-9-9---9-9-9---9-9-|
d|-----------------------------------------------------------------|
a|-----------------------------------------------------------------|
d|-----------------------------------------------------------------|
Piano/Synth
e|-12------12------12------12------12------12------12------12------|
b|---1210-9--1210-9--1210-9--1210-9--1210-9--1210-9--1210-9--12109-|
g|-----------------------------------------------------------------|
d|-----------------------------------------------------------------|
a|-----------------------------------------------------------------|
E|-----------------------------------------------------------------|

Repeat Intro/Chorus

Post Chorus

Violin
e|-----------------------------------------------------------------|
b|-10--9---12---9---10--9---12---9---10--9---12---10--9--------9---|
g|---9---9----9---9---9---9----9---9---9---9----9---9---9-11-9---9-|
d|-----------------------------------------------------------------|
a|-----------------------------------------------------------------|
d|-----------------------------------------------------------------|


Verse 2   with Verse 1 Piano

G1
e|----------------------12----------10-----------------------------|
b|------------10--12---(12)----------------12-------10------(9)----|
g|-------9---------------------------------NH----------------------| 2x   Play Bracketed
d|-----------------------------------------------------------------| Second Time Through
a|-----------------------------------------------------------------|
d|-----------------------------------------------------------------|


PreChorus 2

Violin Riff 4x

G1 4th Time
e------------------------------------------------------------------|
b------------------------------------12------12------12------12----|
g-9-9-9-9-9-9-9-9-9-9-9-9-9-9-9-9--9---9-9-9---9-9-9---9-9-9---9-9-|
d------------------------------------------------------------------|
a------------------------------------------------------------------|
d------------------------------------------------------------------|

Chorus 2

G1/2
e|-----------------------------------------------------------------|
b|-------12---12--------12-----12--------9-----9---------9-----9---|
g|-9-9-9----9-----9-9-9------9-----9-9-9-----9-----9-9-9-----9-----|
d|-----------------------------------------------------------------|
a|-----------------------------------------------------------------|
E|-0-0-0-0-0-0-0-0-2-2-2-2-2-2-2-2-5-5-5-5-5-5-5-5-5-5-5-5-5-5-5-5-|

G1/2
e|-----------------------------------------------------------------|
b|-------12----12--------12----12--------9-----9---------10----10--|
g|-9-9-9-----9-----9-9-9-----9-----9-9-9-----9-----9-9-9-----9-----|
d|-----------------------------------------------------------------|
a|-----------------------------------------------------------------|
E|-0-0-0-0-0-0-0-0-2-2-2-2-2-2-2-2-5-5-5-5-5-5-5-5-5-7-0-0-7-0-7\--|

G1/2
e|-----------------------------------------------------------------|
b|-9-9-91010101212-9-9-91010101212-9-9-91010101212-9-9-91010101212-|
g|-----------------------------------------------------------------|
d|-----------------------------------------------------------------|
a|-----------------------------------------------------------------|
d|-0-0-0-0-0-0-0-0-2-2-2-2-2-2-2-2-5-5-5-5-5-5-5-5-5-5-5-5-5-5-5-5-|


G1/2
e|---------------------------------12121212121212121212121212121212|
b|-9-9-91010101212-9-9-91010101212-12121212121212121212121212121212|
g|-----------------------------------------------------------------|
d|-----------------------------------------------------------------|
a|-----------------------------------------------------------------|
d|-0-0-0-0-2-0-0-0-4-0-0-0-5-0-0-0-7-7-7-7-7-7-7-7-7-9-0-0-11-0-12\|

Bridge

Piano/Synth
   A                              F#m
e|-0-------------------------------2-------------------------------|
b|-2-------------------------------2---------------10----9---------|
g|-2-------------------------------2--------9----------------------|
d|-2-------------------------------4-------------------------------|
a|-0-------------------------------4-------------------------------|
E|---------------------------------2-------------------------------|

   E                              Emaj7                         Repeat Chords for whole Bridge
e|-0-------------------------------0-------------------------------|
b|-0-------------------------------0-------------------------------|
g|-1-------------------------------1-------------------------------|
d|-2-------------------------------1-------------------------------|
a|-2-------------------------------2-------------------------------|
E|-0-------------------------------0-------------------------------|


Violin Part 8x

G1 (joins Violin 6th time)
e|---------------------------------------------------------------------------------|
b|-9-12-10-10-12-9-10---9-12----10-12-9-10---9-12---10-12-9-10-10-9-9-10----9-9----|
g|--------------------9-------9------------9------9----------------------11----11--|
d|---------------------------------------------------------------------------------|  2x
a|---------------------------------------------------------------------------------|
d|---------------------------------------------------------------------------------|

e|----------------------------------------------------------------------------------------------|
b|--9-12-10-10-12-9-10-10--9-12-10-10-12-9-10-10--9-12-10-10-12-9-10-10--9-12-10-10-12-9-10-10--|
g|----------------------------------------------------------------------------------------------|
d|----------------------------------------------------------------------------------------------|
a|----------------------------------------------------------------------------------------------|
d|----------------------------------------------------------------------------------------------|

e|----------------------------------------------------------------------------------------|
b|----12-10-9-12-10-9-12-10-9-12-10-9-12-10-9-12-10-9-12-10-9-12-10-9-12-10-9-12-10-9-12--|
g|--9-------------------------------------------------------------------------------------|
d|----------------------------------------------------------------------------------------|
a|----------------------------------------------------------------------------------------|
d|----------------------------------------------------------------------------------------|

Repeat Chorus 1

Chorus 3

G1 (with Chorus 1 Rhythm G2)
e---------------------------------------------------------------------------------|
b---------------------------------------------------------------------------------|
g-9-11-11-11-11-13-13-13-13-14-14-14-14-16-16-16-16-16-16-16-16-16-16-16-16-9-9-9-|
d-x--x--x--x--x--x--x--x--x--x--x--x--x--x--x--x--x--x--x--x--x--x--x--x--x-x-x-x-|
a-7--9--9--9--9-11-11-11-11-12-12-12-12-14-14-14-14-14-14-14-14-14-14-14-14-7-7-7-|
d---------------------------------------------------------------------------------|

e-----------------------------------------------------------------------------------------|
b-----------------------------------------------------------------------------------------|
g-9-11-11-11-11-13-13-13-13-14-14-14-14-16-16-16-16-14-14-14-14-13-13-13-13-9-9-9-9-9-9-9-|
d-x--x--x--x--x--x--x--x--x--x--x--x--x--x--x--x--x--x--x--x--x--x--x--x--x-x-x-x-x-x-x-x-|
a-7--9--9--9--9-11-11-11-11-12-12-12-12-14-14-14-14-12-12-12-12-11-11-11-11-7-7-7-7-7-7-7-|
d-----------------------------------------------------------------------------------------|

e---------------------------------------------------------------------------------|
b---------------------------------------------------------------------------------|
g-9-11-11-11-11-13-13-13-13-14-14-14-14-16-16-16-16-16-16-16-16-16-16-16-16-9-9-9-|
d-x--x--x--x--x--x--x--x--x--x--x--x--x--x--x--x--x--x--x--x--x--x--x--x--x-x-x-x-|
a-7--9--9--9--9-11-11-11-11-12-12-12-12-14-14-14-14-14-14-14-14-14-14-14-14-7-7-7-|
d---------------------------------------------------------------------------------|

e----------------------------------------------------------------------Bend-Slightly-|
b------------------------------------------------------------------------------------|
g-9-11-11-11-11-13-13-13-13-14-14-14-14-21-21-21-21-21-21-21-21-21-21-21-21-21-21-21-|
d-x--x--x--x--x--x--x--x--x--x--x--x--x--x--x--x--x--x--x--x--x--x--x--x--x--x--x--x-|
a-7--9--9--9--9-11-11-11-11-12-12-12-12-19-19-19-19-19-19-19-19-19-19-19-19-19-19-19-|
d------------------------------------------------------------------------------------|

Outro

G1
e|--7-----7-----7-----7-----5-----5-----5-----5-------------------------|
b|----5-----5-----5-----5-----5-----5-----5-----5-----------------------|
g|------4-----4-----4-----4-----4-----4-----4-----4---------------------|
d|----------------------------------------------------------------------|
a|----------------------------------------------------------------------|
d|----------------------------------------------------------------------|

e|--4-----4-----4-----4---------7-----7-----7-----7---------------------|
b|----5-----5-----5-----5-----4-----4-----4-----4-----------------------|
g|------4-----4-----4-----4-4-----4-----4-----4-------------------------|
d|----------------------------------------------------------------------|
a|----------------------------------------------------------------------|
d|----------------------------------------------------------------------|

e|--7-----7-----7-----7-----5-----5-12----12-----\----------------------|
b|----5-----5-----5-----5-----5--------12----12--/---16x----------------|
g|------4-----4-----4-----4-----4---------------------------------------|
d|----------------------------------------------------------------------|
a|----------------------------------------------------------------------|
d|----------------------------------------------------------------------|

THE END








P.S. MISC

Guitar 3

Intro/Chorus
e----------------------------------------------------------------------|
b-12121212121212121212121212121212--9-9-9-9-9-9-9-9-9-9-9-9-9-9-9-9----|
g--x-x-x-x-x-x-x-x-x-x-x-x-x-x-x-x--x-x-x-x-x-x-x-x-x-x-x-x-x-x-x-x----|
d--9-9-9-9-9-9-9-9-9-9-9-9-9-9-9-9--6-6-6-6-6-6-6-6-6-6-6-6-6-6-6-6----|
a----------------------------------------------------------------------|
d----------------------------------------------------------------------|

e----------------------------------------------------------------------|
b-12121212121212121212121212121212--9-9-9-9-9-9-9-9--------------------|
g--x-x-x-x-x-x-x-x-x-x-x-x-x-x-x-x--x-x-x-x-x-x-x-x---11-----11---11---|
d--9-9-9-9-9-9-9-9-9-9-9-9-9-9-9-9--6-6-6-6-6-6-6-6----9------9----9---|
a----------------------------------------------------------------------|
d--------------------------------------------------------0-0----0------|

e----------------------------------------------------------------------|
b-12121212121212121212121212121212--9-9-9-9-9-9-9-9-9-9-9-9-9-9-9-9----|
g--x-x-x-x-x-x-x-x-x-x-x-x-x-x-x-x--x-x-x-x-x-x-x-x-x-x-x-x-x-x-x-x----|
d--9-9-9-9-9-9-9-9-9-9-9-9-9-9-9-9--6-6-6-6-6-6-6-6-6-6-6-6-6-6-6-6----|
a----------------------------------------------------------------------|
d----------------------------------------------------------------------|

e-----------------------------------12121212121212121212121212121212---|
b-12121212121212121212121212121212---x-x-x-x-x-x-x-x-x-x-x-x-x-x-x-x---|
g--x-x-x-x-x-x-x-x-x-x-x-x-x-x-x-x---9-9-9-9-9-9-9-9-9-9-9-9-9-9-9-9---|
d--9-9-9-9-9-9-9-9-9-9-9-9-9-9-9-9-------------------------------------|
a----------------------------------------------------------------------|
d----------------------------------------------------------------------|

Bridge beginning

e|-----------------------------------------------------------------|
b|-----------------------------------------------------------------|
g|-11\\\\----------------------------------------------------------|
d|-----------------------------------------------------------------|
a|-----------------------------------------------------------------|
E|-----------------------------------------------------------------|

Last Line of Bridge
e|-----------------------------------------------------------------|
b|-----------------------------------------------------------------|
g|-----------------------------------------------------------------|
d|-----------------------------------------------------------------|
a|-2-2-2-2-2-2-2-2-4-4-4-4-4-4-4-4-6-6-6-6-6-6-6-6-9-9-9-9-9-9-9-9-|
E|-----------------------------------------------------------------|


Chorus 3 (Harmonizes)
e---------------------------------------------------------------------------------|
b---------------------------------------------------------------------------------|
g-9-11-11-11-11-13-13-13-13-14-14-14-14-16-16-16-16-16-16-16-16-16-16-16-16-9-9-9-|
d-x--x--x--x--x--x--x--x--x--x--x--x--x--x--x--x--x--x--x--x--x--x--x--x--x-x-x-x-|
a-7--9--9--9--9-11-11-11-11-12-12-12-12-14-14-14-14-14-14-14-14-14-14-14-14-7-7-7-|
d---------------------------------------------------------------------------------|

e-----------------------------------------------------------------------------------------|
b-----------------------------------------------------------------------------------------|
g-9-11-11-11-11-13-13-13-13-14-14-14-14-13-13-13-13-11-11-11-11--9--9--9--9---------------|
d-x--x--x--x--x--x--x--x--x--x--x--x--x--x--x--x--x--x--x--x--x--x--x--x--x-9-9-9-9-9-----|
a-7--9--9--9--9-11-11-11-11-12-12-12-12-11-11-11-11--9--9--9--9--7--7--7--7-x-x-x-x-x-----|
d---------------------------------------------------------------------------7-7-7-7-7-\\\-|

e---------------------------------------------------------------------------------|
b---------------------------------------------------------------------------------|
g-9-11-11-11-11-13-13-13-13-14-14-14-14-16-16-16-16-16-16-16-16-16-16-16-16-9-9-9-|
d-x--x--x--x--x--x--x--x--x--x--x--x--x--x--x--x--x--x--x--x--x--x--x--x--x-x-x-x-|
a-7--9--9--9--9-11-11-11-11-12-12-12-12-14-14-14-14-14-14-14-14-14-14-14-14-7-7-7-|
d---------------------------------------------------------------------------------|

e-------------------------------------------------------------------------------------|
b-------------------------------------------------------------------------------------|
g-9-11-11-11-11-13-13-13-13-14-14-14-14-21-21-21-21-21-21-21-21-21-21-21-21-21-21-21--|
d-x--x--x--x--x--x--x--x--x--x--x--x--x--x--x--x--x--x--x--x--x--x--x--x--x--x--x--x--|
a-7--9--9--9--9-11-11-11-11-12-12-12-12-19-19-19-19-19-19-19-19-19-19-19-19-19-19-19--|
d-----------------------------------------------------------------^^-Bend-Slightly----|
comments
We did not receive enough feedback on this tab! Please rate:
print report bad tab
1 2 3 4 5
2 comments total.
0 reply
Warewolf_n wrote on October 4 2010, 08:03 am

I have to say man that this looks really weird, no power chords for the main guitar, everything is all over the place, one good thing atleast is the piano parts which are the most tricky to figure out ill give you that

0 reply
myperuba wrote on October 4 2010, 09:36 am

is there some rule of music that says there must be power chords? i can point you in the direction of live vids that show most of this is right

I want to post or [tab]
guest
You may want to rate the tab now too:
select rating
Please do not post tabs as comments. Select "correction" instead!