Oops, an error
Loading. Please wait.

One More Word Tab

ver1
ver1

Whole song

Interactive

More versions @911Tabs.com
600 views 1 this week
no commentswrite comment
1 2 3 4 5
accurate
x 1
Autoscroll
+/-
esc
set tempo
stop
Contributor
Difficulty
novice
WARNING: You are trying to view
                                    content from Ultimate-Guitar.com
                                    in an unauthorized application,
                                    which is prohibited.

                                    Please use an official Ultimate
                                    Guitar Tabs application for iPhone,
                                    iPad or Android to access legitimate
                                    chords, guitar, bass, and drum tabs
                                    from Ultimate-Guitar.com database.

                                    Type "ultimate guitar tabs" in Apple
                                    App Store's or Android Market's
                                    search to find the application.
Song: One More Word
Artist: 36 Crazyfists
Album: Bitterness The Star

Tabbed By Christian Abbott.
Please Rate!

Tuning: CGCFAD (Drop C)

Key: *= Harmonics
     ~= Hold Note
     /= Slide Down
     \= Slide Up
     .= Palm Mute
     T= Tremolo
     P= Pull
     H= Hammer
     B= Bend
     V= Vibrato

Intro- Guitar 1
D -------------------------------------------------------------------------|
A -------------------------------------------------------------------------|
F -------------------------------------------------------------------------|
C -888-555-444-555-44-54--888-555-444-555-44-54--1-1-1-1-55-444-555-44-54--|
G -666-333-222-333-22-32--666-333-222-333-22-32--1-1-1-1-33-222-333-22-32--|
C -----------------------------------------------1-1-1-1-------------------|
                                                 . . . .

D -------------------------------------------------------------------------|
A -------------------------------------------------------------------------|
F -------------------------------------------------------------------------|
C -1-1-1-1-55-444-555-44-54-1-1-1-1-55-444-555-44-54-1-1-1-1-55-444-555-4--|
G -1-1-1-1-33-222-333-22-32-1-1-1-1-33-222-333-22-32-1-1-1-1-33-222-333-2--|
C -1-1-1-1------------------1-1-1-1------------------1-1-1-1---------------|
   . . . .                  . . . .                  . . . .

Verse- Guitar 1
D --------------------------------------------------------------------------|
A --------------------------------------------------------------------------|
F --------------------------------------------------------------------------|
C --------------------------------------------------------------------------|
G -666-333-222-333-22-32--666-333-222-333-22-32--666-333-222-333-22-32------|
C --------------------------------------------------------------------------|
   ... ... ... ... .. ..  ... ... ... ... .. ..  ... ... ... ... .. ..

D ---------------------------------------------------------------------------|
A ---------------------------------------------------------------------------|
F ---------------------------------------------------------------------------|
C -----------------4--888-555-444-555-44-54--888-555-444-555-44-54--888-555--|
G -666-333-222-333-2--666-333-222-333-22-32--666-333-222-333-22-32--666-333--|
C ---------------------------------------------------------------------------|
   ... ... ... ...    ... ... ... ... .. ..  ... ... ... ... .. ..  ... ...

D --------------------------------------------------------------------------|
A --------------------------------------------------------------------------|
F --------------------------------------------------------------------------|
C -444-555-44-54--888-555-444-555-44-54-------------------------------------|
G -222-333-22-32--666-333-222-333-22-32-------------------------------------|
C --------------------------------------------------------------------------|
   ... ... .. ..

Chorus
D -----------------------------------------------------------------------|
A -----------------------------------------------------------------------|
F -----------------------------------------------------------------------|
C -4---5---0--4---5-0--4---5---0~--4---5---0--4---5-0--4---5---0~--------|
G -4---5---0--4---5-0--4---5---0~--4---5---0--4---5-0--4---5---0~--------|
C -4-0-5-0-0--4-0-5-0--4-0-5-0-0~--4-0-5-0-0--4-0-5-0--4-0-5-0-0~--------|
     .   .      .        .   .       .   .      .        .   .

Verse- Guitar 1
D --------------------------------------------------------------------------|
A --------------------------------------------------------------------------|
F --------------------------------------------------------------------------|
C --------------------------------------------------------------------------|
G -666-333-222-333-22-32--666-333-222-333-22-32--666-333-222-333-22-32------|
C --------------------------------------------------------------------------|
   ... ... ... ... .. ..  ... ... ... ... .. ..  ... ... ... ... .. ..

D ---------------------------------------------------------------------------|
A ---------------------------------------------------------------------------|
F ---------------------------------------------------------------------------|
C -----------------4--888-555-444-555-44-54--888-555-444-555-44-54--888-555--|
G -666-333-222-333-2--666-333-222-333-22-32--666-333-222-333-22-32--666-333--|
C ---------------------------------------------------------------------------|
   ... ... ... ...    ... ... ... ... .. ..  ... ... ... ... .. ..  ... ...

D --------------------------------------------------------------------------|
A --------------------------------------------------------------------------|
F --------------------------------------------------------------------------|
C -444-555-44-54--888-555-444-555-44-54-------------------------------------|
G -222-333-22-32--666-333-222-333-22-32-------------------------------------|
C --------------------------------------------------------------------------|
   ... ... .. ..

Chorus- Guitar 1
D -----------------------------------------------------------------------|
A -----------------------------------------------------------------------|
F -----------------------------------------------------------------------|
C -4---5---0--4---5-0--4---5---0~--4---5---0--4---5-0--4---5---0~--------|
G -4---5---0--4---5-0--4---5---0~--4---5---0--4---5-0--4---5---0~--------|
C -4-0-5-0-0--4-0-5-0--4-0-5-0-0~--4-0-5-0-0--4-0-5-0--4-0-5-0-0~--------|
     .   .      .        .   .       .   .      .        .   .

Breakdown/ Bridge pt.1 - Guitar 1
D -------------------------------------------------------------------------|
A -------------------------------------------------------------------------|
F -------------------------------------------------------------------------|
C -888-555-444-555-44-54--888-555-444-555-44-54--888-555-444-555-44-54-----|
G -666-333-222-333-22-32--666-333-222-333-22-32--666-333-222-333-22-32-----|
C -------------------------------------------------------------------------|

D -------------------------------------------------------------------------|
A -------------------------------------------------------------------------|
F -------------------------------------------------------------------------|
C -888-555-444-555-44-54-1-1-1-1-55-444-555-44-54-1-1-1-1-55-444-555-44-54-|
G -666-333-222-333-22-32-1-1-1-1-33-222-333-22-32-1-1-1-1-33-222-333-22-32-|
C -----------------------1-1-1-1------------------1-1-1-1------------------|
                         . . . .                  . . . .

D ------------------------------------------------------------------------|
A ------------------------------------------------------------------------|
F ------------------------------------------------------------------------|
C -1-1-1-1-55-444-555-44-54-1-1-1-1-55-444-555-44-54----------------------|
G -1-1-1-1-33-222-333-22-32-1-1-1-1-33-222-333-22-32----------------------|
C -1-1-1-1------------------1-1-1-1---------------------------------------|
   . . . .                  . . . .

Then the funky bass part comes in and then you do this part.

Breakdown/ Bridge pt.2
D --------------------------------------------------------------------------|
A --------------------------------------------------------------------------|
F --------------------------------------------------------------------------|
C -1\4/1-4-1-0-1-0-1-4-1-0-00-00-0-4-1-0-1-0-1-4-1-0-000-0-0-0--4-1-0-1-0-1-|
G -1\4/1-4-1-0-1-0-1-4-1-0-00-00-0-4-1-0-1-0-1-4-1-0-000-0-0-0--4-1-0-1-0-1-|
C -1\4/1-4-1-0-1-0-1-4-1-0-00-00-0-4-1-0-1-0-1-4-1-0-000-0-0-0--4-1-0-1-0-1-|
                           .. .. .                   ... . . .

D -------------------------------------------------------------------------|
A -------------------------------------------------------------------------|
F -------------------------------------------------------------------------|
C -4-1-0-00-00-0-4-1-0-1-0-1-4-1-0~-----8--4--5/---------------------------|
G -4-1-0-00-00-0-4-1-0-1-0-1-4-1-0~-----6--2--3/---------------------------|
C -4-1-0-00-00-0-4-1-0-1-0-1-4-1-0~----------------------------------------|
         .. .. .

Verse- Guitar 1
D --------------------------------------------------------------------------|
A --------------------------------------------------------------------------|
F --------------------------------------------------------------------------|
C --------------------------------------------------------------------------|
G -666-333-222-333-22-32--666-333-222-333-22-32--666-333-222-333-22-32------|
C --------------------------------------------------------------------------|
   ... ... ... ... .. ..  ... ... ... ... .. ..  ... ... ... ... .. ..

D ---------------------------------------------------------------------------|
A ---------------------------------------------------------------------------|
F ---------------------------------------------------------------------------|
C -----------------4--888-555-444-555-44-54--888-555-444-555-44-54--888-555--|
G -666-333-222-333-2--666-333-222-333-22-32--666-333-222-333-22-32--666-333--|
C ---------------------------------------------------------------------------|
   ... ... ... ...    ... ... ... ... .. ..  ... ... ... ... .. ..  ... ...

D --------------------------------------------------------------------------|
A --------------------------------------------------------------------------|
F --------------------------------------------------------------------------|
C -444-555-44-54--888-555-444-555-44-54-------------------------------------|
G -222-333-22-32--666-333-222-333-22-32-------------------------------------|
C --------------------------------------------------------------------------|
   ... ... .. ..

Chorus- Guitar 1
D -----------------------------------------------------------------------|
A -----------------------------------------------------------------------|
F -----------------------------------------------------------------------|
C -4---5---0--4---5-0--4---5---0~--4---5---0--4---5-0--4---5---0~--------|
G -4---5---0--4---5-0--4---5---0~--4---5---0--4---5-0--4---5---0~--------|
C -4-0-5-0-0--4-0-5-0--4-0-5-0-0~--4-0-5-0-0--4-0-5-0--4-0-5-0-0~--------|
     .   .      .        .   .       .   .      .        .   .

Breakdown/ Bridge- Guitar 1
D -------------------------------------------------------------------------|
A -------------------------------------------------------------------------|
F -------------------------------------------------------------------------|
C -888-555-444-555-44-54--888-555-444-555-44-54--888-555-444-555-44-54-----|
G -666-333-222-333-22-32--666-333-222-333-22-32--666-333-222-333-22-32-----|
C -------------------------------------------------------------------------|

D -------------------------------------------------------------------------|
A -------------------------------------------------------------------------|
F -------------------------------------------------------------------------|
C -888-555-444-555-44-54-1-1-1-1-55-444-555-44-54-1-1-1-1-55-444-555-44-54-|
G -666-333-222-333-22-32-1-1-1-1-33-222-333-22-32-1-1-1-1-33-222-333-22-32-|
C -----------------------1-1-1-1------------------1-1-1-1------------------|
                         . . . .                  . . . .

D ------------------------------------------------------------------------|
A ------------------------------------------------------------------------|
F ------------------------------------------------------------------------|
C -1-1-1-1-55-444-555-44-54-1-1-1-1-55-444-555-44-54----------------------|
G -1-1-1-1-33-222-333-22-32-1-1-1-1-33-222-333-22-32----------------------|
C -1-1-1-1------------------1-1-1-1---------------------------------------|
   . . . .                  . . . .


Breakdown/ Bridge pt.3
D --------------------------------------------------------------------------|
A --------------------------------------------------------------------------|
F --------------------------------------------------------------------------|
C -1\4/1-4-1-0-1-0-1-4-1-0-00-00-0-4-1-0-1-0-1-4-1-0-000-0-0-0--------------|
G -1\4/1-4-1-0-1-0-1-4-1-0-00-00-0-4-1-0-1-0-1-4-1-0-000-0-0-0--------------|
C -1\4/1-4-1-0-1-0-1-4-1-0-00-00-0-4-1-0-1-0-1-4-1-0-000-0-0-0--------------|
                           .. .. .                   ... . . .

Modified Breakdown/ Bridge pt. 3
D ---------------------------------------------------------------------|
A ---------------------------------------------------------------------|
F ---------------------------------------------------------------------|
C ---------------------------------------------------------------8-4-5-|
G ---------------------------------------------------------------6-2-3-|
C -4v-1v-0v-1v-0v-1v-4v-1v-0v-00-00-0-4v-1v-0v-1v-0v-1v-4v-1v-0v-------|

Done

Email: Guitarskategood@hotmail.com
comments
We did not receive enough feedback on this tab! Please rate:
print report bad tab
1 2 3 4 5
I want to post or [tab]
guest
You may want to rate the tab now too:
select rating
Please do not post tabs as comments. Select "correction" instead!