Oops, an error
Loading. Please wait.

Back Where You Belong Bass Tab

ver2
ver2

Whole song

Interactive

More versions @911Tabs.com
273 views 3 this week
no commentswrite comment
1 2 3 4 5
please rate
Autoscroll
+/-
esc
set tempo
stop
Contributor
Difficulty
intermediate
Hey! There's an official Ultimate Guitar app which is ideal
for learning songs when you're away from computer. Get the app
WARNING: You are trying to view
                                    content from Ultimate-Guitar.com
                                    in an unauthorized application,
                                    which is prohibited.

                                    Please use an official Ultimate
                                    Guitar Tabs application for iPhone,
                                    iPad or Android to access legitimate
                                    chords, guitar, bass, and drum tabs
                                    from Ultimate-Guitar.com database.

                                    Type "ultimate guitar tabs" in Apple
                                    App Store's or Android Market's
                                    search to find the application.
-----------------------------------------------------------------------------
		  
                Back Where You Belong - 38 Special (BASS)
            
-----------------------------------------------------------------------------
Tabbed by: Scotto10

Tuning: Standard

=============================================================================

Bass



G||-------|-------|-------|-------|-------|-------|-------|
D||-------|-------|-------|-------|-------|-------|-------|
A||-------|-------|-------|-------|-------|-------|-------|
E||-------|-------|-------|-------|-------|-------|-------|


  H        E  E  E  E     Q    H        E  E     Q    H        E  E   
-----------------------|----------------------|----------------------|
-----------------------|----------------------|--5-------------------|
-----------------------|-------------------5--|-------------------5--|
--------------5--3--2--|--3-------------------|----------------------|


  E  E  E  E  E  E  E  E     E  E  E  E  E  E  E  E   
--------------------------|--------------------------|
--------------------------|--------------------------|
--3--3--3--3--3--3--3--3--|--5--5--5--5--5--5--5--5--|
--------------------------|--------------------------|


  E  E  E  E  E  E  E  E     Q     E  H        E     E  E  E  Q    E  E  E   
--------------------------|-----------------------|-------------------------|
--------------------------|-----------------------|-------------------------|
--5--5--5--5--5--3--3--5--|--7\----------------5--|--3--3--3--5-------5-----|
--------------------------|-----------0-----------|----------------5-----5--|


  Q     E  H        E     E  E  E  E  E  E  E  E     E  E  E  E  E  E  E  E   
-----------------------|--------------------------|-------------------------|
-----------------------|--------------------------|-------------------------|
--7\----------------5--|--3--3--3--3--5--5--5--5--|--5--5--5--5--2----------|
-----------0-----------|--------------------------|-----------------0--1--2-|


  E  E  E  E  E  Q    E     E  E  E  E  E  E  E  E     E  E  E  E  E  Q    E  

 
-------------------------|--------------------------|-----------------------|
-------------------------|--------------------------|-----------------------|
----------------------3--|--3--3--3--3--3--5--------|----------------------3|
--3--3--3--3--3--5-------|--------------------0--2--|--3--3--3--3--3--5-----|


  E  E  E  Q    E  E  E     E  E  E  E  E  Q    E     E  E  E  E  E  E  E  E  

 
-------------------------|-------------------------|------------------------|
-------------------------|-------------------------|-----------------------5|
--3--3--3--5----3--2--5--|----------------------3--|--3--3--3--3--3--5--7---|
-------------------------|--3--3--3--3--3--5-------|------------------------|


  E  E  E  E  E  E  E  E     E  E  E  E  E  E  E  E   
--------------------------|--------------------------|
--------------------------|--------------------------|
--------------------------|--3--3--3--3--3--3--3--3--|
--3--3--3--3--5--5--5--5--|--------------------------|


  E  E  E  E  E  E  E  E     Q     H.              H.           E  E   
--------------------------|---------------------|---------------------|
--------------------------|---------------------|---------------------|
--3--3--3--3--3--2--------|--5\-----------------|------------------3--|
--------------------5--3--|---------------------|---------------------|


  Q.     Q.      Q        Q    Q    Q.     E     Q.     E  E  E  Q     
---------5------17\----|----------------------|-----------------------|
-----------------------|-------5--------------|-----------------------|
--L--------------------|------------5------7--|--L------3--3--5--5----|
-----------------------|----------------------|-----------------------|


  Q     Q     Q    E  E     E  E  E  E  E  E  E  E     Q    E  Q    E  E  E   
-------------------------|--------------------------|-----------------------|
-------------------------|--------------------------|--5--------------------|
-------10\----5-------3--|--L--3--3--3--3--3--3--5--|----------5----5--5--5-|
-------------------------|--------------------------|-----------------------|


  Q    E  Q.     E  E     Q    E  Q    E  E  E     Q    E  Q    E  E  E   
-----------------------|------------------------|------------------------|
--5--------------------|------------------------|------------------------|
----------5---------5--|--3-------3-------3-----|--5-------5-------------|
-----------------------|---------------3-----3--|---------------5--3--2--|


  Q    E  Q    E  E  E     Q    E  Q    E  E  E     E  E  E  E  E  E  E  E   
------------------------|------------------------|--------------------------|
------------------------|--5---------------------|--------------------------|
----------5----5--5--5--|----------5----5-----5--|--3--3--3--3--3-----3-----|
--3---------------------|------------------------|-----------------3-----3--|


  Q.     E  E  E  E  E     Q     E  H        E     E  E  E  Q    E  E  E   
------------------------|-----------------------|-------------------------|
------------------------|-----------------------|-------------------------|
--5------5--5--3--3--5--|--7\----------------5--|--3--3--3--5-------5-----|
------------------------|-----------0-----------|----------------5-----5--|


  Q     E  Q.     E  E     Q    E  E  E  E  E  E     E  E  E  Q    E  E  E   
------------------------|-------------------------|-------------------------|
------------------------|----------5--------------|-------------------------|
--7\--------------7--5--|--3----7-----5--5--5--5--|--5--3--3--5----5--5--7--|
-----------0------------|-------------------------|-------------------------|


  E  E  E  E     E  E  E  E  E  Q    E     E  E  E  E  E  E  E  E   
--------------|-------------------------|--------------------------|
--------------|-------------------------|--------------------------|
--5--5--3-----|----------------------3--|--3--3--3--3--3--5--------|
-----------5--|--3--3--3--3--3--5-------|--------------------0--2--|


  E  E  E  E  E  Q    E     E  E  E  Q    E  E  E     E  E  E  E  E  Q    E   
-------------------------|-------------------------|------------------------|
-------------------------|-------------------------|------------------------|
----------------------3--|--3--3--3--5----3--2--5--|----------------------3-|
--3--3--3--3--3--5-------|-------------------------|--3--3--3--3--3--5------|


  E  E  E  E  E  E  E  E     E  E  E  E  E  E  E  E   
--------------------------|--------------------------|
-----------------------5--|--------------------------|
--3--3--3--3--3--5--7-----|--------------------------|
--------------------------|--3--3--3--3--5--5--5--5--|


  E  E  E  E  E  E  E  E     E  E  E  E  E  E  E  E     Q     H.            
--------------------------|--------------------------|---------------------|
--------------------------|--------------------------|---------------------|
--3--3--3--3--3--3--3--3--|--3--3--3--3--3--2--------|--5\-----------------|
--------------------------|--------------------5--3--|---------------------|


  Q    E.  S Q    E  E     Q.     Q.      Q        Q    Q    Q.     E   
------------------------|---------5------17\----|----------------------|
-------5----------------|-----------------------|-------5--------------|
-------------5-------3--|--L--------------------|------------5------7--|
------------------------|-----------------------|----------------------|


  Q.     E  E  E  Q       Q     Q     Q    E  E     E  E  E  E  E  E  E  E   
-----------------------|-------------------------|--------------------------|
-----------------------|-------------------------|--------------------------|
--L------3--3--5--5----|-------10\----5-------3--|--L--3--3--3--3--3--3--5--|
-----------------------|-------------------------|--------------------------|


  E  E  E  E  E  E  E  E     E  E  E  E  E  E  E  E   
--------------------------|--------------------------|
--------------------------|--------------------------|
--------------------------|--------------------------|
--1--1--1--1--1--1--1--1--|--3--3--3--3--3--3--3--3--|


  E  E  E  E  E  E  E  E     E  E  E  E  E  E  E  E   
--------------------------|--------------------------|
--------------------------|--------------------5--7--|
--------------------------|-----------------5--------|
--1--1--1--1--1--1--1--1--|--3--3--3--3--3-----------|


  E  E  E  E  E  E  E  E     E  E  E  E  E  E  E  E   
--------------------------|--------------------------|
--------------------------|--------------------------|
--------------------------|--------------------------|
--1--1--1--1--1--1--1--6--|--6--6--6--6--6--6--6--6--|


  E  E  E  E  E  E  E  E     E  E  E  E  E  E  E  E     Q    Q    Q    E  E   
--------------------------|--------------------------|----------------------|
--------------------------|--------------------------|----------------------|
--------------------------|--3--3--3--3--3--3--3--3--|----------------------|
--5--5--5--5--5--5--5--5--|--------------------------|--6-----------------6-|


  Q    Q    Q    E  E     Q    Q    H           Q.      E  H         
-----------------------|---------------------|----------------------|
-----------------------|---------------------|----------------------|
-----------------------|--3------------------|--5s------1--L--------|
--5-----------------5--|---------------------|----------------------|


  E  E  E  E  E  E  E  E     E  E  E  E  E  E  E  E   
--------------------------|--------------------------|
--------------------------|--------------------------|
--1--1--1--1--1--1--1--1--|--3--3--3--3--3--3--------|
--------------------------|--------------------5--3--|


  E  E  E  E  E  E  E  E     Q.     H        E     Q    E  E  E  E  E  E   
--------------------------|---------------------|-------------------------|
--------------------------|---------------------|-------------------------|
--------------------------|---------3--------L--|--L----3--3--5--5--5--5--|
--5--5--5--5--5--5--5--5--|--3------------------|-------------------------|


  Q.     Q.     Q       H        E  E  Q       Q.     Q.     Q     
---------------------|----------------------|---------------------|
--5------------------|----------------------|--5------------------|
---------5------3----|--L--------3--5--5----|---------5------3----|
---------------------|----------------------|---------------------|


  E  E  E  E  E  E  Q       Q.     Q.     Q       E  E  E  E  E  E  Q     
-------------------------|---------------------|-------------------------|
-------------------------|--5------------------|-------------------------|
--L--3--3--3--3--5--5----|---------5------3----|--L--3--3--3--3--5--5----|
-------------------------|---------------------|-------------------------|


  Q    E  Q    E  E  E     Q    E  Q.     E  E     Q    E  Q    E  E  E   
------------------------|-----------------------|------------------------|
--5---------------------|--5--------------------|------------------------|
----------5----5--5--5--|----------5---------5--|--3-------3-------3-----|
------------------------|-----------------------|---------------3-----3--|


  Q    E  Q    E  E  E     Q    E  Q    E  E  E     Q    E  Q    E  E  E   
------------------------|------------------------|------------------------|
------------------------|------------------------|--5---------------------|
--5-------5-------------|----------5----5--5--5--|----------5----5-----5--|
---------------5--3--2--|--3---------------------|------------------------|


  E  E  E  E  E  E  E  E     Q.     E  E  E  E  E     Q     E  H        E   
--------------------------|------------------------|-----------------------|
--------------------------|------------------------|-----------------------|
--3--3--3--3--3-----3-----|--5------5--5--3--3--5--|--7\----------------5--|
-----------------3-----3--|------------------------|-----------0-----------|


                                                    |----3----|     
  E  E  E  Q    E  E  E     Q     E  H        E     Q    Q    Q     
-------------------------|-----------------------|-----------------|
-------------------------|-----------------------|------------5----|
--3--3--3--5-------5-----|--7\----------------5--|--3----7---------|
----------------5-----5--|-----------0-----------|-----------------|


  Q    E  E  E  E  E  E     E  E  E  E  E  E  E  E     E  E  E  E  E  Q    E  

 
-------------------------|--------------------------|-----------------------|
-------------------------|--------------------------|-----------------------|
--5----5--5--3--3--5--5--|--L--5--5--9--7--5--------|----------------------3|
-------------------------|--------------------7--5--|--3--3--3--3--3--5-----|


  E  E  E  E  E  E  E  E     E  E  E  E  E  Q    E     E  E  E  Q    E  E  E  

 
--------------------------|-------------------------|-----------------------|
--------------------------|-------------------------|-----------------------|
--3--3--3--3--3--5--------|----------------------3--|--3--3--3--5----3--2--5|
--------------------0--2--|--3--3--3--3--3--5-------|-----------------------|


  E  E  E  E  E  Q    E     E  E  E  E  E  E  E  E     E  E  E  E  E  Q    E  

 
-------------------------|--------------------------|----------------------5|
-------------------------|-----------------------5--|-----------------------|
----------------------3--|--3--3--3--3--3--5--7-----|-----------------------|
--3--3--3--3--3--5-------|--------------------------|--3--3--3--3--3--5-----|


  E  E  E  E  E  E  Q       E  E  E  E  E  Q    E     E  E  E  E  E  E  E  E  

 
--5--4-------------------|-------------------------|------------------------|
--------7--5--------5----|-------------------------|-----------------------5|
--------------5--7-------|----------------------3--|--3--3--3--3--3--5--7---|
-------------------------|--3--3--3--3--3--5-------|------------------------|


  E  E  E  E  E  E  E  E     E  E  E  E  E  E  Q       E  E  E  E  E  E  E  E 

  
--------------------------|-------------------------|------------------------
--------------------------|-------------------------|------------------------
--------------------2--3--|--3--3--3----------------|--------------------2--3
--3--3--3--3--3--5--------|-----------0--0--2--3----|--3--3--3--3--3--5------


  E  E  E  E  E  E  E  E     E  E  E  E  E  E  E  E     E  E  E  E  Q    Q    

 
--------------------------|--------------------------|----------------------|
-----------------5--------|--------------------------|----------------------|
--L--3--3--5--7-----7--5--|--------------------2--3--|--L--3--3--5--7----5--|
--------------------------|--3--3--3-----3--5--------|----------------------|


  E  E  E  E  E  Q    E     E  E  E  E  E  E  E  E     E  E  E  E  E  E  E  E 

  
-------------------------|--------------------------|------------------------
-------------------------|-----------------------5--|------------------------
----------------------3--|--3--3--3--3--3--5--7-----|--------------------2--3
--3--3--3--3--3--5-------|--------------------------|--3--3--3--3--3--5------


  E  E  E  E  E  E  Q       E  E  E  E  E  E  E  E     E  E  E  E  E  E  E  E 

  
-------------------------|--------------------------|------------------------
-------------------------|--------------------------|-----------------5------
--3--3--3----------------|--------------------2--3--|--L--3--3--5--7-----7--5
-----------0--0--2--3----|--3--3--3--3--3--5--------|------------------------


  E  E  E  E  E  E  E  E     E  E  E  E  Q    Q      
--------------------------|------------------------||
--------------------------|------------------------||
--------------------2--3--|--L--3--3--5--7----5----||
--3--3--3-----3--5--------|------------------------||




Duration Legend
---------------
W - whole
H - half
Q - quarter
E - 8th
S - 16th
T - 32nd
X - 64th
. - note dotted
|-n-|  - n-tuplets


Tablature Legend
----------------
L - tied note
x - dead note
g - grace note
(n) - ghost note
> - accentuded note
NH - natural harmonic
AH - artificial harmonic
TH - tapped harmonic
SH - semi harmonic
PH - pitch harmonic
h - hammer on
p - pull off
b - bend
br - bendRelease
pb - preBend
pbr - preBendRelease
brb - bendReleaseBend
\n/ - tremolo bar dip
\n - tremolo bar dive
-/n - tremolo bar Release up
/n\ - tremolo bar inverted dip
/n - tremolo bar return
-\n - tremolo bar Release down
S - shift slide
s - legato slide
/ -  slide into from below or out of upwards
\ -  slide into from above or out of downwards
~ - vibrato
W - wide vibrato
tr - trill
TP - tremolo picking
T - tapping
S - slap
P - pop
< - fade in
^ - brush up
v - brush down
comments
We did not receive enough feedback on this tab! Please rate:
print report bad tab
1 2 3 4 5
I want to post or [tab]
guest
You may want to rate the tab now too:
select rating
Please do not post tabs as comments. Select "correction" instead!