Oops, an error
Loading. Please wait.

Back Where You Belong Tab

ver2
ver2

Whole song

Interactive

More versions @911Tabs.com
823 views 1 this week
no commentswrite comment
1 2 3 4 5
please rate
Autoscroll
+/-
esc
set tempo
stop
Contributor
Difficulty
intermediate
Hey! There's an official Ultimate Guitar app which is ideal
for learning songs when you're away from computer. Get the app
WARNING: You are trying to view
                                    content from Ultimate-Guitar.com
                                    in an unauthorized application,
                                    which is prohibited.

                                    Please use an official Ultimate
                                    Guitar Tabs application for iPhone,
                                    iPad or Android to access legitimate
                                    chords, guitar, bass, and drum tabs
                                    from Ultimate-Guitar.com database.

                                    Type "ultimate guitar tabs" in Apple
                                    App Store's or Android Market's
                                    search to find the application.
-----------------------------------------------------------------------------
                  
                Back Where You Belong - 38 Special (GUITAR)
            
-----------------------------------------------------------------------------
Tabbed by: Scotto10

Tuning: Standard

=============================================================================

Guitar 1



        PM       PM PM    PM       PM PM    PM PM    PM  
     E  E  E  E  E  E  E  E     E  E  E  E  E  E  E  E   
E||--------------------------|--------------------------|
B||--------------------------|--------------------------|
G||--7-----7-----------------|--5--------5--------5-----|
D||--5--5--5--7--------7-----|--5--------5--------5-----|
A||-----------5--5--5--5--5--|--3--3--3--3--3--3--3--3--|
E||--------------------------|--------------------------|


     PM       PM PM    PM       PM PM    PM PM    PM  
  E  E  E  E  E  E  E  E     E  E  E  E  E  E  E  E   
--------------------------|--------------------------|
--------------------------|--------------------------|
--7-----7-----------------|--5--------5--------5-----|
--5--5--5--7--------7-----|--5--------5--------5-----|
-----------5--5--5--5--5--|--3--3--3--3--3--3--3--3--|
--------------------------|--------------------------|


     PM       PM PM    PM       PM    PM    PM    PM  
  E  E  E  E  E  E  E  E     E  E  E  E  E  E  E  E   
--------------------------|--------------------------|
--------------------------|--------------------------|
--7-----7--7--------7-----|--7-----7-----7-----7-----|
--5--5--5--4--4--4--4--0--|--5--5--5--5--4--4--4-----|
--------------------------|-----------------------0--|
--------------------------|--------------------------|


     PM PM    PM PM    PM       PM PM                 
  E  E  E  E  E  E  E  E     E  E  E  E  E  E  E  E   
--------------------------|--------------------------|
--------------------------|--------------------------|
--5--------5--------5-----|--7--------7-----------7--|
--5--------5--------5-----|--5--0--0--4--0--7--5--4--|
--3--3--3--3--3--3--3--3--|--------------------------|
--------------------------|--------------------------|


     PM       PM PM    PM       PM    PM    PM    PM  
  E  E  E  E  E  E  E  E     E  E  E  E  E  E  E  E   
--------------------------|--------------------------|
--------------------------|--------------------------|
--7-----7--7--------7-----|--7-----7-----7-----7-----|
--5--5--5--4--4--4--4--0--|--5--5--5--5--4--0--4-----|
--------------------------|-----------------------0--|
--------------------------|--------------------------|


     PM PM    PM PM    PM       PM PM    PM PM PM PM  
  E  E  E  E  E  E  E  E     E  E  E  E  E  E  E  E   
--------------------------|--------------------------|
--------------------------|--------------------------|
--5--------5--------5-----|--7--------7--------------|
--5--------5--------5-----|--5--------4--------------|
--3--3--3--3--3--3--3--3--|-----5--5-----5--5--5--5--|
--------------------------|--------------------------|


     PM PM    PM                PM PM    PM PM PM PM  
  E  E  E  E  E  E  E  E     E  E  E  E  E  E  E  E   
--------------------------|--------------------------|
--------------------------|--------------------------|
--7--------7--------------|--------------------------|
--7--------7-----5--5--7--|--9--9--9--9--9--9--9--9--|
--5--5--5--5--5--3--3--5--|--7--7--7--7--7--7--7--7--|
--------------------------|--------------------------|


                                PM PM    PM PM PM PM  
  E  E  E  E  E  E  E  E     E  E  E  E  E  E  E  E   
--------------------------|--------------------------|
--------------------------|--------------------------|
--------------------------|--------------------------|
--5--5--5--7--L--7--7--7--|--9--9--9--9--9--9--9--9--|
--3--3--3--5--L--5--5--5--|--7--7--7--7--7--7--7--7--|
--------------------------|--------------------------|


  E  E  E  E  E  E  E  E     E  E  E  E  E  E  E  E   
--------------------------|--------------------------|
--------------------------|--------------------------|
--------------------------|--------------------------|
--5--5--5--5--7--7--7--7--|--5--5--5--5--7--7--7--7--|
--3--3--3--3--5--5--5--5--|--3--3--3--3--5--5--5--5--|
--------------------------|--------------------------|


  E  E  E  E  E  E  E  E     E  E  E  E  E  E  E  E   
--------------------------|--------------------------|
--------------------------|--------------------------|
--------------------------|--------------------------|
-----------------------5--|--5--5--5--5--5--7--7--7--|
--5--5--5--5--5--7--7--3--|--3--3--3--3--3--5--5--5--|
--3--3--3--3--3--5--5-----|--------------------------|


  E  E  E  E  E  E  E  E     E  E  E  Q    E  E  E     E  E  E  E  E  E  E  E   
--------------------------|-------------------------|--------------------------|
--------------------------|-------------------------|--------------------------|
--------------------------|-------------------------|--------------------------|
-----------------------5--|--5--5--5--7----7--7--7--|-----------------------5--|
--5--5--5--5--5--7--7--3--|--3--3--3--5----5--5--5--|--5--5--5--5--5--7--7--3--|
--3--3--3--3--3--5--5-----|-------------------------|--3--3--3--3--3--5--5-----|


  E  E  E  E  E  E  E  E     E  E  E  E  E  E  E  E   
--------------------------|--------------------------|
--------------------------|--------------------------|
--------------------------|--------------------------|
--5--5--5--5--5--7--7--7--|--------------------------|
--3--3--3--3--3--5--5--5--|--5--5--5--5--7--7--7--7--|
--------------------------|--3--3--3--3--5--5--5--5--|


  E  E  E  E  E  E  E  E     E  E  E  E  E  E  E  E     Q    H.            
--------------------------|--------------------------|--------------------|
--------------------------|--------------------------|--------------------|
--------------------------|--------------------------|--------------------|
--5--5--5--5--5--5--5--5--|--5--5--5--5--5--5--5--5--|--7-----------------|
--3--3--3--3--3--3--3--3--|--3--3--3--3--3--3--3--3--|--5-----------------|
--------------------------|--------------------------|--------------------|


  E  S S  E  S S Q.     E     W                   E  S S  E  S S Q.     E   
---------------------------|-------------------|---------------------------|
---------------------------|-------------------|---------------------------|
---------12------7------5--|--L----------------|---------12------7------9--|
-----x-x-12--x-x-7------5--|--L----------------|-----x-x-12--x-x-7------9--|
-----x-x-10--x-x-5------3--|--L----------------|-----x-x-10--x-x-5------7--|
------------------------3--|--L----------------|---------------------------|


  Q.     E  E  E  Q       E  S S  E  S S Q.     E     E  E  E  E  E  E  E  E   
-----------------------|---------------------------|--------------------------|
-----------------------|---------------------------|--------------------------|
--L------5--5--7--7----|---------12------7------5--|--L-----------------------|
--L------5--5--7--7----|-----x-x-12--x-x-7------5--|--L--5--5--5--5--5--5--5--|
--L------3--3--5--5----|-----x-x-10--x-x-5------3--|--L--3--3--3--3--3--3--3--|
-----------------------|------------------------3--|--L-----------------------|


     PM       PM PM    PM       PM    PM    PM    PM  
  E  E  E  E  E  E  E  E     E  E  E  E  E  E  E  E   
--------------------------|--------------------------|
--------------------------|--------------------------|
--7-----7--7--------7-----|--7-----7-----7-----7-----|
--5--5--5--4--4--4--4--0--|--5--5--5--5--4--4--4-----|
--------------------------|-----------------------0--|
--------------------------|--------------------------|


     PM PM    PM PM    PM                                PM       PM PM    PM  
  E  E  E  E  E  E  E  E     Q    E  Q    E  E  E     E  E  E  E  E  E  E  E   
--------------------------|------------------------|--------------------------|
--------------------------|------------------------|--------------------------|
--5--------5--------5-----|--7-------7----------7--|--7-----7--7--------7-----|
--5--------5--------5-----|--5-------7----7--5--4--|--5--5--5--4--4--4--4--0--|
--3--3--3--3--3--3--3--3--|----------5-------------|--------------------------|
--------------------------|------------------------|--------------------------|


     PM    PM    PM    PM       PM PM    PM PM    PM                           
  E  E  E  E  E  E  E  E     E  E  E  E  E  E  E  E     Q    E  Q    E  E  E   
--------------------------|--------------------------|------------------------|
--------------------------|--------------------------|------------------------|
--7-----7-----7-----7-----|--5--------5--------5-----|--7-------7-------------|
--5--5--5--5--4--0--4-----|--5--------5--------5-----|--7-------7----5--5--7--|
-----------------------0--|--3--3--3--3--3--3--3--3--|--5-------5----3--3--5--|
--------------------------|--------------------------|------------------------|


  E  Q    E  Q    E  E     Q    E  E  E  E  Q       E  Q    H        E   
------------------------|------------------------|----------------------|
------------------------|------------------------|----------------------|
------------------------|------------------------|--9-------9--------L--|
--9----------9----9--9--|--5----x--7-----7--7----|--9-------9--------L--|
--7----------7----7--7--|--3----x--5-----5--5----|--7-------7--------L--|
------------------------|------------------------|----------------------|


  E  E  E  E  E  E  E  E     Q    Q    Q    E  E     E  E  E  E   
--------------------------|-----------------------|--------------|
--------------------------|-----------------------|--------------|
--------------------------|-----------------------|--------------|
--5--5--5--5--7--7--7--7--|--5----5----7----7--7--|--7--7--7--7--|
--3--3--3--3--5--5--5--5--|--3----3----5----5--5--|--5--5--5--5--|
--------------------------|-----------------------|--------------|


  E  E  E  E  E  E  E  E     E  E  E  E  E  E  E  E   
--------------------------|--------------------------|
--------------------------|--------------------------|
--------------------------|--------------------------|
-----------------------5--|--5--5--5--5--5--7--7--7--|
--5--5--5--5--5--7--7--3--|--3--3--3--3--3--5--5--5--|
--3--3--3--3--3--5--5-----|--------------------------|


  E  E  E  E  E  E  E  E     E  E  E  Q    E  E  E     E  E  E  E  E  E  E  E   
--------------------------|-------------------------|--------------------------|
--------------------------|-------------------------|--------------------------|
--------------------------|-------------------------|--------------------------|
-----------------------5--|--5--5--5--7----7--7--7--|-----------------------5--|
--5--5--5--5--5--7--7--3--|--3--3--3--5----5--5--5--|--5--5--5--5--5--7--7--3--|
--3--3--3--3--3--5--5-----|-------------------------|--3--3--3--3--3--5--5-----|


  E  E  E  E  E  E  E  E     E  E  E  E  E  E  E  E   
--------------------------|--------------------------|
--------------------------|--------------------------|
--------------------------|--------------------------|
--5--5--5--5--5--7--7--7--|--------------------------|
--3--3--3--3--3--5--5--5--|--5--5--5--5--7--7--7--7--|
--------------------------|--3--3--3--3--5--5--5--5--|


  E  E  E  E  E  E  E  E     E  E  E  E  E  E  E  E     Q    H.            
--------------------------|--------------------------|--------------------|
--------------------------|--------------------------|--------------------|
--------------------------|--------------------------|--------------------|
--5--5--5--5--5--5--5--5--|--5--5--5--5--5--5--5--5--|--7-----------------|
--3--3--3--3--3--3--3--3--|--3--3--3--3--3--3--3--3--|--5-----------------|
--------------------------|--------------------------|--------------------|


  E  S S  E  S S Q.     E     W                   E  S S  E  S S Q.     E   
---------------------------|-------------------|---------------------------|
---------------------------|-------------------|---------------------------|
---------12------7------5--|--L----------------|---------12------7------9--|
-----x-x-12--x-x-7------5--|--L----------------|-----x-x-12--x-x-7------9--|
-----x-x-10--x-x-5------3--|--L----------------|-----x-x-10--x-x-5------7--|
------------------------3--|--L----------------|---------------------------|


  Q.     E  E  E  Q       E  S S  E  S S Q.     E     E  E  E  E  E  E  E  E   
-----------------------|---------------------------|--------------------------|
-----------------------|---------------------------|--------------------------|
--L------5--5--7--7----|---------12------7------5--|--L-----------------------|
--L------5--5--7--7----|-----x-x-12--x-x-7------5--|--L--5--5--5--5--5--5--5--|
--L------3--3--5--5----|-----x-x-10--x-x-5------3--|--L--3--3--3--3--3--3--3--|
-----------------------|------------------------3--|--L-----------------------|


  Q    E  E  Q    Q       Q    E   E  E  E  Q       Q    E  E  Q    Q     
-----------------------|-------------------------|-----------------------|
-------6--5-------8----|--L----6p--5-------------|-------6--5-------8----|
-------------7---------|--------------7--5-------|-------------7---------|
-----------------------|--------------------5----|--L--------------------|
-----------------------|-------------------------|-----------------------|
-----------------------|-------------------------|-----------------------|


  Q    Q    Q    S  S S  S    Q    E  E  Q    Q       Q    Q    Q    Q     
---------------------------|-----------------------|----------------------|
--L----6----5----6p-5------|-------6--5-------8----|--L----6----5---------|
----------------------7p-5-|-------------7---------|-----------------7----|
---------------------------|--5--------------------|----------------------|
---------------------------|-----------------------|----------------------|
---------------------------|-----------------------|----------------------|


  Q    Q    Q    Q        W                                                    
----------------------|--------------------|----|----|----|----|----|----|----|
--6----5--------------|--------------------|----|----|----|----|----|----|----|
------------7----5----|--/9----------------|----|----|----|----|----|----|----|
----------------------|--------------------|----|----|----|----|----|----|----|
----------------------|--------------------|----|----|----|----|----|----|----|
----------------------|--------------------|----|----|----|----|----|----|----|


             Q.       Q       E  Q       H.           S   S  S S  
----|----|----------------------------|--------------------------|
----|----|--10b------10br----10--8----|--L------------8h-10p-8---|
----|----|----------------------------|------------------------9-|
----|----|----------------------------|--------------------------|
----|----|----------------------------|--------------------------|
----|----|----------------------------|--------------------------|


   Q.       Q      E   Q         H         E     E   E  E   
-----------------------------|-----------------------------|
--10b------10br----8--11b----|---L--------10pbr--8--10--8--|
-----------------------------|-----------------------------|
-----------------------------|-----------------------------|
-----------------------------|-----------------------------|
-----------------------------|-----------------------------|


   Q.       Q       E  Q       Q.      Q      Q     S   S  
----------------------------|-----------------------------|
--10b------10br----10--8----|--L------11b----10b----8h-10-|
----------------------------|-----------------------------|
----------------------------|-----------------------------|
----------------------------|-----------------------------|
----------------------------|-----------------------------|


              PM PM    PM       PM    PM    PM    PM  
  Q    E   E  E  E  E  E     E  E  E  E  E  E  E  E   
--------------------------|--------------------------|
--8----L\-----------------|--------------------------|
-----------7--------7-----|--7-----7-----7-----7-----|
-----------4--4--4--4--0--|--5--5--5--5--4--4--4-----|
--------------------------|-----------------------0--|
--------------------------|--------------------------|


     PM PM    PM PM    PM                                PM       PM PM    PM  
  E  E  E  E  E  E  E  E     Q    E  Q    E  E  E     E  E  E  E  E  E  E  E   
--------------------------|------------------------|--------------------------|
--------------------------|------------------------|--------------------------|
--5--------5--------5-----|--7-------7----------7--|--7-----7--7--------7-----|
--5--------5--------5-----|--5-------7----7--5--4--|--5--5--5--4--4--4--4--0--|
--3--3--3--3--3--3--3--3--|----------5-------------|--------------------------|
--------------------------|------------------------|--------------------------|


     PM    PM    PM    PM       PM PM    PM PM    PM                           
  E  E  E  E  E  E  E  E     E  E  E  E  E  E  E  E     Q    E  Q    E  E  E   
--------------------------|--------------------------|------------------------|
--------------------------|--------------------------|------------------------|
--7-----7-----7-----7-----|--5--------5--------5-----|--7-------7-------------|
--5--5--5--5--4--0--4-----|--5--------5--------5-----|--7-------7----5--5--7--|
-----------------------0--|--3--3--3--3--3--3--3--3--|--5-------5----3--3--5--|
--------------------------|--------------------------|------------------------|


  E  E   E   E    H            Q.      Q.         Q        
---------------------------|------------------------------|
-----8--10--10b---L--------|---L------10pbr------10pbr----|
---------------------------|------------------------------|
---------------------------|------------------------------|
---------------------------|------------------------------|
---------------------------|------------------------------|


                            |-----3----|                                   
  Q.      Q.       Q        Q     Q    Q        H         E    E   E   E   
-------------------------|-------------7----|-----------------------------|
--8------10b-------L\----|--8----10---------|--10---------L-------13--15--|
-------------------------|------------------|----------------/14----------|
-------------------------|------------------|-----------------------------|
-------------------------|------------------|-----------------------------|
-------------------------|------------------|-----------------------------|


   W                                       H        E   Q      S   S  
--------------------|-------------------|----------------------------|
---L----------------|-------------------|--------------13b----11h-12-|
--------------------|-------------------|----------------------------|
--------------------|-------------------|----------------------------|
--------------------|-------------------|----------------------------|
--------------------|-------------------|----------------------------|


   H         Q     Q       Q.     E  E  E  E  E     H.           Q     
------------------------|------------------------|--------------------|
------------------------|------------------------|--------------------|
--12---------L\---------|---------7--5--4--5--4--|--7-----------------|
------------------------|------------------------|--------------------|
------------------------|------------------------|--------------------|
------------------------|------------------------|--------------------|


   H         E    E   Q           E   E   E      E   E     S  S  E   E   
------------------------------|-----------------------------------------|
-----------------15-----------|------15---------------------------------|
--12--------14b------14pbr----|---L------14pbr--12--14br--12----12--14--|
------------------------------|------------------------------14---------|
------------------------------|-----------------------------------------|
------------------------------|-----------------------------------------|


   Q     E   Q     E   Q         H.            E   E   
-----------------------------|------------------------|
--------12--13----15--15b----|--15-------------L--15--|
---L-------------------------|------------------------|
-----------------------------|------------------------|
-----------------------------|------------------------|
-----------------------------|------------------------|


   E   E   E    E   E    E   Q       E   Q    Q    E  E  E   
----------------------------------|-------------------------|
--15--13--13s--12--12s--10--10----|-----/8----8-------------|
----------------------------------|----------------7--4--5--|
----------------------------------|-------------------------|
----------------------------------|-------------------------|
----------------------------------|-------------------------|


  E  E  E   Q    E    S  E.      Q     Q     E.   S  S   S  E   
-----------------------------|--15----15----15---15--------15--|
-----------------8--/15-17---|----------------------17p-15-----|
--L-----7b--7----------------|---------------------------------|
-----5-----------------------|---------------------------------|
-----------------------------|---------------------------------|
-----------------------------|---------------------------------|


   Q     E   S  S  S  S  S  S  E   E       Q     Q        E    E   E   E   
--15----15--15-14-15-14-------15--17b--|---L----17pbr----15s--12----------|
------------------------17-15----------|--------------------------15--13--|
---------------------------------------|----------------------------------|
---------------------------------------|----------------------------------|
---------------------------------------|----------------------------------|
---------------------------------------|----------------------------------|


   E   E   E    E   E   E    S  S  S  S     H         E    E    E   S   S  
----------------------------------------|---------------------------------|
---L------15b--15---L-------------------|---------------------------------|
------12---------------14b---L-12-14-12-|--12---------L\--14b--12--14p-12-|
----------------------------------------|---------------------------------|
----------------------------------------|---------------------------------|
----------------------------------------|---------------------------------|


   Q     E   Q      E    E   S   S     Q     Q     S   S  E   E   S   S  
------------15\--------------------|------------------------------------|
-----------------------------------|------------------------------------|
--12----12---------14b--12--14p-12-|--12----12-----------12--12---------|
-----------------------------------|--------------12h-14---------12h-14-|
-----------------------------------|------------------------------------|
-----------------------------------|------------------------------------|


   S  E.   S   S  Q     E.    S  S  S     Q     Q     E   E.    S  S  S  
-----------------------17b------17----|------------------17b------17----|
-----------------------------20----20-|--20----20----20--------20----20-|
--12-12----------12-------------------|---------------------------------|
----------12h-14----------------------|---------------------------------|
--------------------------------------|---------------------------------|
--------------------------------------|---------------------------------|


   Q     Q     E   Q      E       E     E   S   S  S   S  Q     E   E   
------------------20b----20b--|---Lpb------18h-19-18h-19---------------|
--20----20----20--------------|--------20----------------20----17------|
------------------------------|------------------------------------19--|
------------------------------|----------------------------------------|
------------------------------|----------------------------------------|
------------------------------|----------------------------------------|


   E    E   E   E   H          
-----------------------------||
-----------------------------||
--15s--17--19--19--19--------||
-----------------------------||
-----------------------------||
-----------------------------||




=============================================================================


Guitar 2



E||-------|-------|-------|-------|-------|-------|-------|-------|-------|
B||-------|-------|-------|-------|-------|-------|-------|-------|-------|
G||-------|-------|-------|-------|-------|-------|-------|-------|-------|
D||-------|-------|-------|-------|-------|-------|-------|-------|-------|
A||-------|-------|-------|-------|-------|-------|-------|-------|-------|
E||-------|-------|-------|-------|-------|-------|-------|-------|-------|


                          H        E  E  E  E     E  Q    H        E   
-------|-------|-------|-----------------------|----------------------|
-------|-------|-------|-----------------------|----------------------|
-------|-------|-------|-----------------------|--9-------9-----------|
-------|-------|-------|--------------5--5--7--|--9-------9-----------|
-------|-------|-------|--------------3--3--5--|--7-------7-----------|
-------|-------|-------|-----------------------|----------------------|


  Q.     Q.     E  E     E  Q    H        E     H        H         
----------------------|----------------------|--------------------|
----------------------|----------------------|--------------------|
----------------------|--9-------9-----------|--------------------|
--5------7------7--7--|--9-------9-----------|--5--------7--------|
--3------5------5--5--|--7-------7-----------|--3--------5--------|
----------------------|----------------------|--------------------|


  E  E  E  E  E  E  E  E      E  E   E  E   E  E   E  E   
--------------------------|--15--x--15--x--15--x--15--x--|
--------------------------|------------------------------|
--------------------------|--12--x--12--x--12--x--12--x--|
--7--7--7--7--7--7--7--7--|------------------------------|
--5--5--5--5--5--5--5--5--|------------------------------|
--------------------------|------------------------------|


   E  E   E  E   E  E   E  E      E  E   E  E   E  E   E  E   
--15--x--15--x--15--x--15--x--|--15--x--15--x--15--x--15--x--|
------------------------------|------------------------------|
--12--x--12--x--12--x--12--x--|--12--x--12--x--12--x--12--x--|
------------------------------|------------------------------|
------------------------------|------------------------------|
------------------------------|------------------------------|


   E  E   E  E   E  E   E  E      E  E   E  E   E  E   E  E   
--15--x--15--x--15--x--15--x--|--15--x--15--x--15--x--15--x--|
------------------------------|------------------------------|
--12--x--12--x--12--x--12--x--|--12--x--12--x--12--x--12--x--|
------------------------------|------------------------------|
------------------------------|------------------------------|
------------------------------|------------------------------|


   E  E   E  E   E  E   E  E      E  E   E  E   E  E   E  E   
--15--x--15--x--15--x--15--x--|--15--x--15--x--15--x--15--x--|
------------------------------|------------------------------|
--12--x--12--x--12--x--12--x--|--12--x--12--x--12--x--12--x--|
------------------------------|------------------------------|
------------------------------|------------------------------|
------------------------------|------------------------------|


   E  E   E  E   E  E   E  E     E  E  E  E  E  E  E  E     Q    H.            
--15--x--15--x--15--x--15--x--|--------------------------|-------------------|
------------------------------|--------------------------|-------------------|
--12--x--12--x--12--x--12--x--|--------------------------|-------------------|
------------------------------|--5--5--5--5--5--5--5--5--|--7----------------|
------------------------------|--3--3--3--3--3--3--3--3--|--5----------------|
------------------------------|--------------------------|-------------------|


  E  S S  E  S S Q.     E     W                   E  S S  E  S S Q.     E   
---------------------------|-------------------|---------------------------|
-----------------3------1--|--L----------------|-----------------3---------|
----------0------2------0--|--L----------------|----------0------2---------|
-----x-x--0--x-x-0------2--|--L----------------|-----x-x--0--x-x-0------2--|
-----x-x--x--x-x--------3--|--L----------------|-----x-x--x--x-x--------2--|
----------3----------------|-------------------|----------3-------------0--|


  Q.     E  E  E  Q       E  S S  E  S S Q.     E     E  E  E  E  E  E  E  E   
-----------------------|---------------------------|-------------------------|
---------1--1--3--3----|-----------------3------1--|-----1--1--1--1--1--1--1-|
---------0--0--2--2----|----------0------2------0--|--L--0--0--0--0--0--0--0-|
--L------2--2--0--0----|-----x-x--0--x-x-0------2--|--L--2--2--2--2--2--2--2-|
--L------3--3----------|-----x-x--x--x-x--------3--|--L--3--3--3--3--3--3--3-|
-----------------------|----------3----------------|-------------------------|


                                                          H        E  E  E  E   
-------|-------|-------|-------|-------|-------|-------|----------------------|
-------|-------|-------|-------|-------|-------|-------|----------------------|
-------|-------|-------|-------|-------|-------|-------|----------------------|
-------|-------|-------|-------|-------|-------|-------|--------------5--5--7-|
-------|-------|-------|-------|-------|-------|-------|--------------3--3--5-|
-------|-------|-------|-------|-------|-------|-------|----------------------|


  E  Q    H        E     Q.     Q.     E  E     E  Q    H        E   
----------------------|----------------------|----------------------|
----------------------|----------------------|----------------------|
--9-------9--------L--|----------------------|--9-------9--------L--|
--9-------9--------L--|--5------7------7--7--|--9-------9--------L--|
--7-------7--------L--|--3------5------5--5--|--7-------7--------L--|
----------------------|----------------------|----------------------|


  H        H           E  E  E  Q    E  E  E     E  E  E  E   
--------------------|-------------------------|--------------|
--------------------|-------------------------|--------------|
--------------------|-------------------------|--------------|
--5--------7--------|--L--5--5--7----7--7--7--|--7--7--7--7--|
--3--------5--------|--L--3--3--5----5--5--5--|--5--5--5--5--|
--------------------|-------------------------|--------------|


   E  E   E  E   E  E   E  E      E  E   E  E   E  E   E  E   
--15--x--15--x--15--x--15--x--|--15--x--15--x--15--x--15--x--|
------------------------------|------------------------------|
--12--x--12--x--12--x--12--x--|--12--x--12--x--12--x--12--x--|
------------------------------|------------------------------|
------------------------------|------------------------------|
------------------------------|------------------------------|


   E  E   E  E   E  E   E  E      E  E   E  E   E  E   E  E   
--15--x--15--x--15--x--15--x--|--15--x--15--x--15--x--15--x--|
------------------------------|------------------------------|
--12--x--12--x--12--x--12--x--|--12--x--12--x--12--x--12--x--|
------------------------------|------------------------------|
------------------------------|------------------------------|
------------------------------|------------------------------|


   E  E   E  E   E  E   E  E      E  E   E  E   E  E   E  E   
--15--x--15--x--15--x--15--x--|--15--x--15--x--15--x--15--x--|
------------------------------|------------------------------|
--12--x--12--x--12--x--12--x--|--12--x--12--x--12--x--12--x--|
------------------------------|------------------------------|
------------------------------|------------------------------|
------------------------------|------------------------------|


   E  E   E  E   E  E   E  E      E  E   E  E   E  E   E  E   
--15--x--15--x--15--x--15--x--|--15--x--15--x--15--x--15--x--|
------------------------------|------------------------------|
--12--x--12--x--12--x--12--x--|--12--x--12--x--12--x--12--x--|
------------------------------|------------------------------|
------------------------------|------------------------------|
------------------------------|------------------------------|


  E  E  E  E  E  E  E  E     Q    H.              E  S S  E  S S Q.     E   
--------------------------|--------------------|---------------------------|
--------------------------|--------------------|-----------------3------1--|
--------------------------|--------------------|----------0------2------0--|
--5--5--5--5--5--5--5--5--|--7-----------------|-----x-x--0--x-x-0------2--|
--3--3--3--3--3--3--3--3--|--5-----------------|-----x-x--x--x-x--------3--|
--------------------------|--------------------|----------3----------------|


  W                   E  S S  E  S S Q.     E     Q.     E  E  E  Q     
-------------------|---------------------------|-----------------------|
--L----------------|-----------------3---------|---------1--1--3--3----|
--L----------------|----------0------2---------|---------0--0--2--2----|
--L----------------|-----x-x--0--x-x-0------2--|--L------2--2--0--0----|
--L----------------|-----x-x--x--x-x--------2--|--L------3--3----------|
-------------------|----------3-------------0--|-----------------------|


  E  S S  E  S S Q.     E     E  E  E  E  E  E  E  E   
---------------------------|--------------------------|
-----------------3------1--|-----1--1--1--1--1--1--1--|
----------0------2------0--|--L--0--0--0--0--0--0--0--|
-----x-x--0--x-x-0------2--|--L--2--2--2--2--2--2--2--|
-----x-x--x--x-x--------3--|--L--3--3--3--3--3--3--3--|
----------3----------------|--------------------------|


      PM PM     PM PM     PM         PM  PM      PM  PM  PM  PM  
   E  E  E   E  E  E   E  E      E   E   E   E   E   E   E   E   
-----------------------------|----------------------------------|
-----------------------------|----------------------------------|
-----------------------------|----------------------------------|
--10--------10--------10-----|--12----------12----------12------|
---8--8--8---8--8--8---8--8--|--10--10--10--10--10--10--10--10--|
-----------------------------|----------------------------------|


      PM PM     PM PM     PM         PM  PM      PM  PM  PM  PM  
   E  E  E   E  E  E   E  E      E   E   E   E   E   E   E   E   
-----------------------------|----------------------------------|
-----------------------------|----------------------------------|
-----------------------------|----------------------------------|
--10--------10--------10-----|--12----------12----------12------|
---8--8--8---8--8--8---8--8--|--10--10--10--10--10--10--10--10--|
-----------------------------|----------------------------------|


      PM PM     PM PM     PM       PM PM    PM PM    PM                        
   E  E  E   E  E  E   E  E     E  E  E  E  E  E  E  E     Q.     H        E   
-----------------------------|--------------------------|--------------------|
-----------------------------|--------------------------|--------------------|
-----------------------------|--------------------------|---------4--------L-|
--10--------10--------10-----|--------------------------|---------5--------L-|
---8--8--8---8--8--8---8--8--|--8--------8--------8-----|---------5--------L-|
-----------------------------|--6--6--6--6--6--6--6--6--|---------3--------L-|


                               PM PM     PM PM     PM  
  E  E  E  Q    E  Q        E  E  E   E  E  E   E  E   
------------------------|-----------------------------|
-----------5------------|-----------------------------|
--------5-------5-------|-----------------------------|
-----5-------------5----|--10--------10--------10-----|
--3---------------------|---8--8--8---8--8--8---8--8--|
------------------------|-----------------------------|


     PM PM    PM PM    PM       PM PM    PM PM    PM  
  E  E  E  E  E  E  E  E     E  E  E  E  E  E  E  E   
--------------------------|--------------------------|
--------------------------|--------------------------|
--------------------------|--5--------5--------5-----|
--9--------9--------9-----|--5--------5--------5-----|
--7--7--7--7--7--7--7--7--|--3--3--3--3--3--3--3--3--|
--------------------------|--------------------------|


                                PM PM    PM PM    PM  
  |----3----|                                         
  Q    Q    Q    H           E  E  E  E  E  E  E  E   
--------------------------|--------------------------|
--------------------------|--------------------------|
-------3----3----L--------|--3--------3--------3-----|
--3----3----3----L--------|--3--------3--------3-----|
--5-----------------------|--1--1--1--1--1--1--1--1--|
--------------------------|--------------------------|


     PM PM    PM PM    PM       PM PM    PM PM PM PM                        
  E  E  E  E  E  E  E  E     E  E  E  E  E  E  E  E     Q.     H        E   
--------------------------|--------------------------|---------------------|
--------------------------|--------------------------|---------------------|
--5--------5--------5-----|--5--------5--------5-----|---------5--------L--|
--5--------5--------5-----|--5--------5--------5-----|--5------5--------L--|
--3--3--3--3--3--3--3--3--|--7--------7--------7-----|--5------3--------L--|
--------------------------|--5--5--5--5--5--5--5--5--|--3------------------|


  Q    E  E  E  E  E  E     Q.     Q.     Q       H        E  E  E  E   
-------------------------|---------------------|-----------------------|
-------------------------|---------------------|-----------------------|
--5----------------------|---------------------|-----------------------|
--5----5--5--7--7--7--7--|---------7------5----|--L--------5--7--7--7--|
--3----------5--5--5--5--|--5------5------3----|--L--------3--5--5--5--|
-------------------------|--3------------------|-----------------------|


  Q.     Q.     Q       E  E  E  E  E  E  E  E     Q.     Q.     Q     
---------------------|--------------------------|---------------------|
---------------------|--------------------------|---------------------|
---------------------|--------------------------|---------------------|
---------7------5----|--L--5--5--5--5--7--7--7--|---------7------5----|
--5------5------3----|--L--3--3--3--3--5--5--5--|--5------5------3----|
--3------------------|--------------------------|--3------------------|


                                PM       PM PM    PM                          
  E  E  E  E  E  E  E  E     E  E  E  E  E  E  E  E                           
--------------------------|--------------------------|-------|-------|------|
--------------------------|--------------------------|-------|-------|------|
--------------------------|--7-----7--7--------7-----|-------|-------|------|
--L--5--5--5--5--7--7--7--|--5--5--5--4--4--4--4--0--|-------|-------|------|
--L--3--3--3--3--5--5--5--|--------------------------|-------|-------|------|
--------------------------|--------------------------|-------|-------|------|


                          H        E  E  E  E     E  Q    H        E   
-------|-------|-------|-----------------------|----------------------|
-------|-------|-------|-----------------------|----------------------|
-------|-------|-------|-----------------------|--9-------9-----------|
-------|-------|-------|--------------5--5--7--|--9-------9-----------|
-------|-------|-------|--------------3--3--5--|--7-------7-----------|
-------|-------|-------|-----------------------|----------------------|


                                                |----3----|     
  Q.     Q.     E  E     E  Q    H        E     Q    Q    Q     
----------------------|----------------------|-----------------|
----------------------|----------------------|-----------------|
----------------------|--9-------9-----------|-----------------|
--5------7------7--7--|--9-------9-----------|--5----5----5----|
--3------5------5--5--|--7-------7-----------|--5----5----5----|
----------------------|----------------------|--3----3----3----|


  Q    E  E  E  E  E  E     E  E  E  E  E  E  E  E     E  E  E  E  E  E  E  E   
-------------------------|--------------------------|-------------------------|
-------------------------|--------------------------|-------------------------|
-------------------------|--------------------------|-------------------------|
--7----7--7--5--5--5--7--|--L--7--7--7--7--7--7--7--|-----------------------5-|
--5----5--5--3--3--3--5--|--L--5--5--5--5--5--5--5--|--5--5--5--5--5--7--7--3-|
-------------------------|--------------------------|--3--3--3--3--3--5--5----|


  E  E  E  E  E  E  E  E     E  E  E  E  E  E  E  E     E  E  E  Q    E  E  E   
--------------------------|--------------------------|------------------------|
--------------------------|--------------------------|------------------------|
--------------------------|--------------------------|------------------------|
--5--5--5--5--5--7--7--7--|-----------------------5--|--5--5--5--7----7--7--7-|
--3--3--3--3--3--5--5--5--|--5--5--5--5--5--7--7--3--|--3--3--3--5----5--5--5-|
--------------------------|--3--3--3--3--3--5--5-----|------------------------|


  E  E  E  E  E  E  E  E     E  E  E  E  E  E  E  E   
--------------------------|--------------------------|
--------------------------|--------------------------|
--------------------------|--------------------------|
-----------------------5--|--5--5--5--5--5--7--7--7--|
--5--5--5--5--5--7--7--3--|--3--3--3--3--3--5--5--5--|
--3--3--3--3--3--5--5-----|--------------------------|


  E  E  E  E  E  E  E  E     E  E  E  E  E  E  E  E   
--------------------------|--------------------------|
--------------------------|--------------------------|
--------------------------|--------------------------|
-----------------------5--|--5--5--5--5--7--7--7--7--|
--5--5--5--5--5--7--7--3--|--3--3--3--3--5--5--5--5--|
--3--3--3--3--3--5--5-----|--------------------------|


  E  E  E  E  E  E  E  E     E  E  E  E  E  E  E  E   
--------------------------|--------------------------|
--------------------------|--------------------------|
--------------------------|--------------------------|
-----------------------5--|--5--5--5--5--5--7--7--7--|
--5--5--5--5--5--7--7--3--|--3--3--3--3--3--5--5--5--|
--3--3--3--3--3--5--5-----|--------------------------|


  E  E  E  E  E  E  E  E     E  E  E  E  Q    Q       E  E  E  E  E  E  E  E   
--------------------------|------------------------|-------------------------|
--------------------------|------------------------|-------------------------|
--------------------------|------------------------|-------------------------|
-----------------------5--|--5--5--5--5--9----7----|-----------------------5-|
--5--5--5--5--5--7--7--3--|--3--3--3--3--7----5----|--5--5--5--5--5--7--7--3-|
--3--3--3--3--3--5--5-----|------------------------|--3--3--3--3--3--5--5----|


  E  E  E  E  E  E  E  E     E  E  E  E  E  E  E  E     E  E  E  E  Q    Q     
--------------------------|--------------------------|-----------------------|
--------------------------|--------------------------|-----------------------|
--------------------------|--------------------------|-----------------------|
--5--5--5--5--5--7--7--7--|-----------------------5--|--5--5--5--5--9----7---|
--3--3--3--3--3--5--5--5--|--5--5--5--5--5--7--7--3--|--3--3--3--3--7----5---|
--------------------------|--3--3--3--3--3--5--5-----|-----------------------|


  E  E  E  E  E  E  E  E     E  E  E  E  E  E  E  E   
--------------------------|--------------------------|
--------------------------|--------------------------|
--------------------------|--------------------------|
-----------------------5--|--5--5--5--5--5--7--7--7--|
--5--5--5--5--5--7--7--3--|--3--3--3--3--3--5--5--5--|
--3--3--3--3--3--5--5-----|--------------------------|


  E  E  E  E  E  E  E  E     E  E  E  E  Q    Q       E  E  E  E  E  E  E  E   
--------------------------|------------------------|-------------------------|
--------------------------|------------------------|-------------------------|
--------------------------|------------------------|-------------------------|
-----------------------5--|--5--5--5--5--9----7----|-----------------------5-|
--5--5--5--5--5--7--7--3--|--3--3--3--3--7----5----|--5--5--5--5--5--7--7--3-|
--3--3--3--3--3--5--5-----|------------------------|--3--3--3--3--3--5--5----|


  E  E  E  E  E  E  E  E     E  E  E  E  E  E  E  E     E  E  E  E  Q    Q      
--------------------------|--------------------------|-----------------------||
--------------------------|--------------------------|-----------------------||
--------------------------|--------------------------|-----------------------||
--5--5--5--5--5--7--7--7--|-----------------------5--|--5--5--5--5--9----7---||
--3--3--3--3--3--5--5--5--|--5--5--5--5--5--7--7--3--|--3--3--3--3--7----5---||
--------------------------|--3--3--3--3--3--5--5-----|-----------------------||




Duration Legend
---------------
W - whole
H - half
Q - quarter
E - 8th
S - 16th
T - 32nd
X - 64th
. - note dotted
|-n-|  - n-tuplets


Tablature Legend
----------------
L - tied note
x - dead note
g - grace note
(n) - ghost note
> - accentuded note
NH - natural harmonic
AH - artificial harmonic
TH - tapped harmonic
SH - semi harmonic
PH - pitch harmonic
h - hammer on
p - pull off
b - bend
br - bendRelease
pb - preBend
pbr - preBendRelease
brb - bendReleaseBend
\n/ - tremolo bar dip
\n - tremolo bar dive
-/n - tremolo bar Release up
/n\ - tremolo bar inverted dip
/n - tremolo bar return
-\n - tremolo bar Release down
S - shift slide
s - legato slide
/ -  slide into from below or out of upwards
\ -  slide into from above or out of downwards
~ - vibrato
W - wide vibrato
tr - trill
TP - tremolo picking
T - tapping
S - slap
P - pop
< - fade in
^ - brush up
v - brush down
comments
We did not receive enough feedback on this tab! Please rate:
print report bad tab
1 2 3 4 5
I want to post or [tab]
guest
You may want to rate the tab now too:
select rating
Please do not post tabs as comments. Select "correction" instead!