Oops, an error
Loading. Please wait.

Fantasy Girl Tab

ver2
ver2

Whole song

More versions @911Tabs.com
2,114 views 1 this week
no commentswrite comment
1 2 3 4 5
please rate
Autoscroll
+/-
esc
set tempo
stop
WARNING: You are trying to view
                                    content from Ultimate-Guitar.com
                                    in an unauthorized application,
                                    which is prohibited.

                                    Please use an official Ultimate
                                    Guitar Tabs application for iPhone,
                                    iPad or Android to access legitimate
                                    chords, guitar, bass, and drum tabs
                                    from Ultimate-Guitar.com database.

                                    Type "ultimate guitar tabs" in Apple
                                    App Store's or Android Market's
                                    search to find the application.
#----------------------------------PLEASE NOTE---------------------------------#
#This file is the author's own work and represents their interpretation of the #
#song. You may only use this file for private study, scholarship, or research. #
#------------------------------------------------------------------------------##

                            38 SPECIAL - FANTASY GIRL


Gtr I (E A D G B E) - 'Guitar 1'
Gtr II (E A D G B E) - 'Lead Guitar'

  Q=175
 3/4
  Gtr I
  H.         E  E H      H.        E E E E E E   Q.   E E E   +H.
|---------|------------|---------|-------------|------------|-----------|
|-0-------|--0----0----|-0-------|-------------|-7----7---7-|-(7)-------|
|-1-------|--2----2----|-1-------|-------------|-8----8---8-|-(8)-------|
|-2-------|--2----2----|-2-------|-----2-2-4-6-|-9----9---7-|-(7)-------|
|---------|------------|---------|-2-4---------|------------|-----------|
|---------|------------|---------|-------------|------------|-----------|
|
| Gtr II
| H.        +H.          H.        E E E E E E   H.           +H     Q
|---------|------------|---------|-------------|-7----------|-(7)-------|
|-0-------|-(0)--------|-0-------|---------2-5-|-7----------|-(7)-------|
|-1-------|-(1)--------|-1-------|-------4-----|-8----------|-(8)-------|
|-2-------|-(2)--------|-2-------|-2-4-6-------|------------|-----------|
|---------|------------|---------|-------------|------------|-----------|
|---------|------------|---------|-------------|------------|-----------|


  Q.   E E E   +H.         H.          E  E  H       H.        E E  E E  E  E
|------------|----------|----------|--------------|----------|-----------------|
|-7----7---7-|-(7)------|----------|--------------|----------|-----------------|
|-8----8---8-|-(8)------|----------|--------------|----------|-----------------|
|-9----9---7-|-(7)------|--9-------|---9-----9----|--9-------|-----------------|
|------------|----------|-11-------|--12----12----|-11-------|------7-7--9-11--|
|------------|----------|-12-------|--12----12----|-12-------|-7-9-------------|
|
| W             W          H.         +H.            H.        E E  E E  E  E
|------------|----------|----------|--------------|----------|-----------------|
|------------|----------|----------|--------------|----------|-----------------|
|------------|----------|----------|--------------|----------|--------------9--|
|------------|----------|--9-------|--(9)---------|--9-------|--------9-11-----|
|------------|----------|-11-------|-(11)---------|-11-------|-7-9-11----------|
|------------|----------|-12-------|-(12)---------|-12-------|-----------------|


   Q.    E E  E    +H.          Q.    E E  E
|---------------|------------|---------------|
|---------------|------------|---------------|
|-11----11---11-|-(11)-------|-11----11---11-|
|-13----13---13-|-(13)-------|-13----13---13-|
|-14----14---12-|-(12)-------|-14----14---12-|
|---------------|------------|---------------|
|
|  H.              +H     Q     W
|--7------------|--(7)-------|---------------|
|--7------------|--(7)-------|---------------|
|--8------------|--(8)-------|---------------|
|---------------|------------|---------------|
|---------------|------------|---------------|
|---------------|------------|---------------|


   +H.         H.          E  E  H
|-----------|----------|--------------|
|-----------|----------|--------------|
|-(11)------|----------|--------------|
|-(13)------|--9-------|---9-----9----|
|-(12)------|-11-------|--12----12----|
|-----------|-12-------|--12----12----|
|
|   W          H.         +H.
|-----------|----------|--------------|
|-----------|----------|--------------|
|-----------|----------|--------------|
|-----------|--9-------|--(9)---------|
|-----------|-11-------|-(11)---------|
|-----------|-12-------|-(12)---------|


   H.          E  E  H       Q.   E E E
|----------|--------------|-------------|
|----------|--------------|--7----7---7-|
|----------|--------------|--8----8---8-|
|--9-------|---9-----9----|--9----9---7-|
|-11-------|--12----12----|-------------|
|-12-------|--12----12----|-------------|
|
|  H.         +H.            H.
|----------|--------------|-------------|
|----------|--------------|-------------|
|----------|--------------|-------------|
|--9-------|--(9)---------|--9----------|
|-11-------|-(11)---------|--9----------|
|-12-------|-(12)---------|-11----------|


  +H.         Q.        E  E  E   +H.
|----------|--------------------|-----------------|
|-(7)------|--7---------7-----7-|-(7)-------------|
|-(8)------|--8---------8-----8-|-(8)-------------|
|-(7)------|--9---------9-----7-|-(7)-------------|
|----------|--------------------|-----------------|
|----------|--------------------|-----------------|
|
|  H.         E   E  E  E  E  E    Q.    E  +Q
|----------|--------------------|-----------------|
|----------|--------------------|-----------------|
|----------|--------------------|-----------------|
|--9-------|--------------------|-16--------------|
|----------|-11--12-14-14-16-18-|-18----18-(18)---|
|----------|-12--14-16-16-17-19-|-------19-(19)---|


   H.         E  E  H       H.         E  E  H      Q.   E E E   +H.
|----------|-------------|----------|-------------|------------|--------|
|----------|-------------|----------|-------------|-7----7---7-|-(7)----|
|----------|-------------|----------|-------------|-8----8---8-|-(8)----|
|--9-------|--9-----9----|--9-------|--9-----9----|-9----9---7-|-(7)----|
|-11-------|-12----12----|-11-------|-12----12----|------------|--------|
|-12-------|-12----12----|-12-------|-12----12----|------------|--------|
|
|  H.        +H.            H.        +H.           H.            H.
|----------|-------------|----------|-------------|------------|--------|
|--0-------|-(0)---------|--0-------|-(0)---------|------------|--------|
|--1-------|-(1)---------|--1-------|-(1)---------|-4----------|--4-----|
|--2-------|-(2)---------|--2-------|-(2)---------|-4----------|--------|
|----------|-------------|----------|-------------|-6----------|--------|
|----------|-------------|----------|-------------|------------|--------|


  Q.       E  E  E   +H.
|------------------|----------------|
|-7--------7-----7-|-(7)------------|
|-8--------8-----8-|-(8)------------|
|-9--------9-----7-|-(7)------------|
|------------------|----------------|
|------------------|----------------|
|
| E  E  E  E  E  E    Q.    E  +Q
|------------------|----------------|
|------------------|----------------|
|------------------|-11-------------|
|-6--7--9--9-11-13-|-13----13-(13)--|
|-7--9-11-11-12-14-|-------14-(14)--|
|------------------|----------------|


   Q   Q   Q     Q   Q   Q     H.         H.
|-------------|-------------|----------|--------|
|--9---9------|-------------|----------|--------|
|--9---9------|--9---9------|----------|--------|
|-11--11------|-11--11------|--9-------|--9-----|
|-------------|-12--12------|-11-------|-11-----|
|-------------|-------------|-12-------|-12-----|
|
|  Q   E E Q     Q   E E Q     H.        +H.
|-------------|-------------|----------|--------|
|-------------|-------------|--0-------|-(0)----|
|--1---1------|-------------|--1-------|-(1)----|
|--2---2------|--2---2------|--2-------|-(2)----|
|--4---4------|--4---4------|----------|--------|
|-------------|--5---5------|----------|--------|


   H.         H.        H.        +H.        H.            +H.
|----------|----------|---------|----------|-------------|---------------|
|----------|----------|-7-------|-(7)------|-7-----------|-(7)-----------|
|--9-------|--9-------|-8-------|-(8)------|-8-----------|-(8)-----------|
|-11-------|--9-------|-9-------|-(9)------|-9-----------|-(9)-----------|
|-12-------|-11-------|---------|----------|-------------|---------------|
|----------|----------|---------|----------|-------------|---------------|
|
|  H.         H.        H.        +H.        Q.   E +Q      Q.   E +Q
|----------|----------|---------|----------|-------------|---------------|
|----------|----------|---------|----------|-------------|---------------|
|----------|----------|---------|----------|-------------|---------------|
|--2-------|--2-------|-4-------|-(4)------|-4----4-(4)--|--4----4-(4)---|
|--4-------|--2-------|-6-------|-(6)------|-6----6-(6)--|--6----6-(6)---|
|--5-------|--4-------|-7-------|-(7)------|-7----7-(7)--|--7----7-(7)---|


   Q   Q    Q       Q    Q   Q     Q   Q   Q
|----------------|--------------|-------------|
|----------------|--------------|-------------|
|----------------|--------------|-------------|
|--9---9---------|--9----9------|--7---7------|
|-11--11---------|-11---11------|--9---9------|
|-12--12---------|-12---12------|-10--10------|
|
|  Q   E E  E  E    E E  E E Q     Q   E E Q
|-----------7--7-|--7-7--7-7----|-------------|
|----------10-10-|-10-9--9-9----|-------------|
|--4---4---------|--------------|-------------|
|--6---6---------|--------------|--7---7------|
|--7---7---------|--------------|--9---9------|
|----------------|--------------|-10--10------|


  Q  Q   Q    H.            +H.
|-----------|-------------|---------------|
|-----------|-------------|---------------|
|-----------|-------------|---------------|
|-7--7------|-4-----------|-(4)-----------|
|-7--7------|-6-----------|-(6)-----------|
|-9--9------|-7-----------|-(7)-----------|
|
| Q  E E Q    Q   E E E E    E  E E E Q
|-----------|---------2-2-|--2--2-2-2-----|
|-----------|---------5-5-|--5--4-4-4-----|
|-----------|-------------|---------------|
|-7--7------|-4---4-------|---------------|
|-7--7------|-6---6-------|---------------|
|-9--9------|-7---7-------|---------------|


  Q  Q  Q    Q  Q  Q    Q  Q    Q       Q   Q   Q     Q   Q   Q    Q  Q   Q
|----------|----------|--------------|-------------|-------------|------------|
|----------|----------|--------------|-------------|-------------|------------|
|----------|----------|-4--4---------|--4---4------|--2---2------|-2--2-------|
|-------2--|----1--4--|-6--6---------|--6---6------|--4---4------|-2--2-------|
|----4-----|-2--------|-7--7---------|--7---7------|--5---5------|-4--4-------|
|-5--------|----------|--------------|-------------|-------------|------------|
|
| Q  Q  Q    Q  Q  Q    Q  E E  E  E    E E E E Q     Q   E E Q    Q  E E Q
|----------|----------|---------7--7-|--7-7-7-7----|-------------|------------|
|----------|----------|--------10-10-|-10-9-9-9----|-------------|------------|
|----------|----------|-4--4---------|-------------|-------------|------------|
|-------2--|----1--4--|-6--6---------|-------------|--7---7------|-7--7-------|
|-0--4-----|-2--------|-7--7---------|-------------|--9---9------|-7--7-------|
|----------|----------|--------------|-------------|-10--10------|-9--9-------|


  Q   Q  Q     Q   Q  Q    Q   Q  Q     Q   Q  Q    H.         E  E H
|-----------|------------|-----------|------------|---------|------------|
|-----------|------------|-----------|------------|---------|--0----0----|
|-----------|------------|-----------|------------|-4-------|--2----2----|
|-4---4-----|--4---4-----|-4---4-----|--4---4-----|-6-------|--2----2----|
|-6---6-----|--6---6-----|-6---6-----|--6---6-----|-7-------|------------|
|-7---7-----|--7---7-----|-7---7-----|--7---7-----|---------|------------|
|
| H.          +H.          H.          +H.          H.        +H.
|-----------|------------|-----------|------------|---------|------------|
|-----------|------------|-----------|------------|---------|------------|
|-----------|------------|-----------|------------|-4-------|-(4)--------|
|-4---------|-(4)--------|-4---------|-(4)--------|-6-------|-(6)--------|
|-6---------|-(6)--------|-6---------|-(6)--------|-7-------|-(7)--------|
|-7---------|-(7)--------|-7---------|-(7)--------|---------|------------|


  H.         E  E H      Q.   E E E
|---------|------------|-2----2---2-|
|-0-------|--0----0----|-4----4---4-|
|-1-------|--2----2----|-4----4---2-|
|-2-------|--2----2----|------------|
|---------|------------|------------|
|---------|------------|------------|
|
| H.        +H.          H.
|---------|------------|------------|
|---------|------------|------------|
|-4-------|-(4)--------|-4----------|
|-6-------|-(6)--------|-4----------|
|-7-------|-(7)--------|-6----------|
|---------|------------|------------|


  +H.        Q.       E  E  E   +H.
|-(2)------|-2--------2-----2-|-(2)-------------|
|-(4)------|-4--------4-----4-|-(4)-------------|
|-(2)------|-4--------4-----2-|-(2)-------------|
|----------|------------------|-----------------|
|----------|------------------|-----------------|
|----------|------------------|-----------------|
|
|  H.        E  E  E  E  E  E    Q.    E  +Q
|----------|------------------|-----------------|
|----------|------------------|-----------------|
|--4-------|------------------|-11--------------|
|----------|-6--7--9--9-11-13-|-13----13-(13)---|
|----------|-7--9-11-11-12-14-|-------14-(14)---|
|----------|------------------|-----------------|


  H.         E  E H      H.         E  E H      Q.   E E E   +H.
|---------|------------|---------|------------|-2----2---2-|-(2)----|
|-0-------|--0----0----|-0-------|--0----0----|-4----4---4-|-(4)----|
|-1-------|--2----2----|-1-------|--2----2----|-4----4---2-|-(2)----|
|-2-------|--2----2----|-2-------|--2----2----|------------|--------|
|---------|------------|---------|------------|------------|--------|
|---------|------------|---------|------------|------------|--------|
|
| H.        +H.          H.        +H.          H.            H.
|---------|------------|---------|------------|------------|--------|
|-0-------|-(0)--------|-0-------|-(0)--------|------------|--------|
|-1-------|-(1)--------|-1-------|-(1)--------|-4----------|--4-----|
|-2-------|-(2)--------|-2-------|-(2)--------|-4----------|--------|
|---------|------------|---------|------------|-6----------|--------|
|---------|------------|---------|------------|------------|--------|


  Q.       E  E  E   +H.              Q  Q   Q    Q  Q   Q    H.        H.
|-2--------2-----2-|-(2)------------|-4--4------|-0--0------|---------|-------|
|-4--------4-----4-|-(4)------------|-5--5------|-2--2------|-0-------|-0-----|
|-4--------4-----2-|-(2)------------|-6--6------|-2--2------|-1-------|-1-----|
|------------------|----------------|-----------|-----------|-2-------|-2-----|
|------------------|----------------|-----------|-----------|---------|-------|
|------------------|----------------|-----------|-----------|---------|-------|
|
| E  E  E  E  E  E    Q.    E  +Q     Q  E E Q    Q  E E Q    H.        H.
|------------------|----------------|-----------|-----------|---------|-------|
|------------------|----------------|-----------|-----------|-0-------|-0-----|
|------------------|-11-------------|-1--1------|-----------|-1-------|-1-----|
|-6--7--9--9-11-13-|-13----13-(13)--|-2--2------|-2--2------|-2-------|-2-----|
|-7--9-11-11-12-14-|-------14-(14)--|-4--4------|-4--4------|---------|-------|
|------------------|----------------|-----------|-5--5------|---------|-------|


  H.        H.        H.        +H.        H.            +H.
|-0-------|-0-------|-2-------|-(2)------|-2-----------|-(2)-----------|
|-2-------|-0-------|-4-------|-(4)------|-4-----------|-(4)-----------|
|-2-------|-1-------|-4-------|-(4)------|-4-----------|-(4)-----------|
|---------|---------|---------|----------|-------------|---------------|
|---------|---------|---------|----------|-------------|---------------|
|---------|---------|---------|----------|-------------|---------------|
|
| H.        H.        H.         H.        Q.   E +Q      Q.   E +Q
|---------|---------|---------|----------|-------------|---------------|
|---------|---------|---------|----------|-------------|---------------|
|---------|---------|---------|----------|-------------|---------------|
|-2-------|-2-------|-4-------|--4-------|-4----4-(4)--|--4----4-(4)---|
|-4-------|-2-------|-6-------|--6-------|-6----6-(6)--|--6----6-(6)---|
|-5-------|-4-------|-7-------|--7-------|-7----7-(7)--|--7----7-(7)---|


  Q  Q    Q       Q   Q   Q     Q   Q   Q
|--------------|-------------|-------------|
|-0--0---------|--0---0------|-------------|
|-1--1---------|--1---1------|--2---2------|
|-2--2---------|--2---2------|--4---4------|
|--------------|-------------|--5---5------|
|--------------|-------------|-------------|
|
| Q  E E  E  E    E E E E Q     Q   E E Q
|---------7--7-|--7-7-7-7----|-------------|
|--------10-10-|-10-9-9-9----|-------------|
|-4--4---------|-------------|-------------|
|-6--6---------|-------------|--7---7------|
|-7--7---------|-------------|--9---9------|
|--------------|-------------|-10--10------|


  Q  Q   Q    H.            +H.
|-----------|-------------|---------------|
|-----------|-------------|---------------|
|-2--2------|-------------|---------------|
|-2--2------|-4-----------|-(4)-----------|
|-4--4------|-6-----------|-(6)-----------|
|-----------|-7-----------|-(7)-----------|
|
| Q  E E Q    Q   E E E E    E  E E E Q
|-----------|---------2-2-|--2--2-2-2-----|
|-----------|---------5-5-|--5--4-4-4-----|
|-----------|-------------|---------------|
|-7--7------|-4---4-------|---------------|
|-7--7------|-6---6-------|---------------|
|-9--9------|-7---7-------|---------------|


  Q  Q  Q    Q  Q  Q    Q  Q    Q       Q   Q   Q     Q   Q   Q    Q  Q   Q
|----------|----------|--------------|-------------|-------------|------------|
|----------|----------|--------------|-------------|-------------|------------|
|----------|----------|-4--4---------|--4---4------|--2---2------|-2--2-------|
|-------2--|----1--4--|-6--6---------|--6---6------|--4---4------|-2--2-------|
|----4-----|-2--------|-7--7---------|--7---7------|--5---5------|-4--4-------|
|-5--------|----------|--------------|-------------|-------------|------------|
|
| Q  Q  Q    Q  Q  Q    Q  E E  E  E    E E E E Q     Q   E E Q    Q  E E Q
|----------|----------|---------7--7-|--7-7-7-7----|-------------|------------|
|----------|----------|--------10-10-|-10-9-9-9----|-------------|------------|
|----------|----------|-4--4---------|-------------|-------------|------------|
|-------2--|----1--4--|-6--6---------|-------------|--7---7------|-7--7-------|
|-0--4-----|-2--------|-7--7---------|-------------|--9---9------|-7--7-------|
|----------|----------|--------------|-------------|-10--10------|-9--9-------|


  Q   Q  Q     Q   Q  Q    Q   Q  Q
|-----------|------------|-----------|
|-----------|------------|-----------|
|-----------|------------|-----------|
|-4---4-----|--4---4-----|-4---4-----|
|-6---6-----|--6---6-----|-6---6-----|
|-7---7-----|--7---7-----|-7---7-----|
|
| H.          +H.          H.
|-----------|------------|-----------|
|-----------|------------|-----------|
|-----------|------------|-----------|
|-4---------|-(4)--------|-4---------|
|-6---------|-(6)--------|-6---------|
|-7---------|-(7)--------|-7---------|


   Q   Q  Q    H.            E  E H
|------------|-------------|---------------|
|------------|-------------|-0----0--------|
|------------|-4-----------|-2----2--------|
|--4---4-----|-6-----------|-2----2--------|
|--6---6-----|-7-----------|---------------|
|--7---7-----|-------------|---------------|
|
| +H.          Q.   E +Q     Q.     E E E
|------------|-4----4-(4)--|-4------4-2----|
|------------|-------------|------------2--|
|------------|-------------|---------------|
|-(4)--------|-------------|---------------|
|-(6)--------|-------------|---------------|
|-(7)--------|-------------|---------------|


  H.        E E H       Q.   E E E   +H.
|---------|-----------|-2----2---2-|-(2)------|
|-0-------|-0---0-----|-4----4---4-|-(4)------|
|-1-------|-2---2-----|-4----4---2-|-(2)------|
|-2-------|-2---2-----|------------|----------|
|---------|-----------|------------|----------|
|---------|-----------|------------|----------|
|
| H.        Q   Q  Q    H      E E    H.
|---------|-4---------|------------|----------|
|-5-------|-----5--7--|-7----------|----------|
|---------|-----------|--------8-6-|--4-------|
|---------|-----------|------------|----------|
|---------|-----------|------------|----------|
|---------|-----------|------------|----------|


  Q.     E  E  E   +H.
|-2------2-----2-|-(2)---------------|
|-4------4-----4-|-(4)---------------|
|-4------4-----2-|-(2)---------------|
|----------------|-------------------|
|----------------|-------------------|
|----------------|-------------------|
|
| E  E E E  E  E    Q.    E  +E   E
|----------------|-------------------|
|----------------|---------------12--|
|----------------|-11----------------|
|-6--7-9-9-11-13-|-------13-(13)-----|
|----------------|-------------------|
|----------------|-------------------|


   H.               E  E H              H.
|----------------|--------------------|-----------------|
|--0-------------|--0----0------------|-0---------------|
|--1-------------|--2----2------------|-1---------------|
|--2-------------|--2----2------------|-2---------------|
|----------------|--------------------|-----------------|
|----------------|--------------------|-----------------|
|
|  Q.    E  +Q      Q.      E  +E   E   Q    E  E  +Q
|-12-------------|--------------------|-----------------|
|-------12-(12)--|-14------12-(12)-10-|-9---10-12-(12)--|
|----------------|--------------------|-----------------|
|----------------|--------------------|-----------------|
|----------------|--------------------|-----------------|
|----------------|--------------------|-----------------|


   E  E  H             Q.    E   E  E   +H.
|-------------------|--2-----2------2-|-(2)----|
|--0-----0----------|--4-----4------4-|-(4)----|
|--2-----2----------|--4-----4------2-|-(2)----|
|--2-----2----------|-----------------|--------|
|-------------------|-----------------|--------|
|-------------------|-----------------|--------|
|
|  E  E  E  E  E  E    Q.    E  +Q       H.
|-------------------|-11--------------|--------|
|-------12-------12-|-------12-(12)---|-12-----|
|-13-14----13-14----|-----------------|--------|
|-------------------|-----------------|--------|
|-------------------|-----------------|--------|
|-------------------|-----------------|--------|


   Q.        E  E  E   +H.        Q  Q   Q    Q  Q   Q    H.         H.
|--2---------2-----2-|-(2)------|-4--4------|-0--0------|---------|--------|
|--4---------4-----4-|-(4)------|-5--5------|-2--2------|-0-------|--0-----|
|--4---------4-----2-|-(2)------|-6--6------|-2--2------|-1-------|--1-----|
|--------------------|----------|-----------|-----------|-2-------|--2-----|
|--------------------|----------|-----------|-----------|---------|--------|
|--------------------|----------|-----------|-----------|---------|--------|
|
|  E   E  E  E  E  E    H.        Q  E E Q    Q  E E Q    H.        +H.
|-----------14-------|----------|-----------|-----------|---------|--------|
|-12--14-12----14-16-|----------|-----------|-----------|-0-------|-(0)----|
|--------------------|-16-------|-1--1------|-----------|-1-------|-(1)----|
|--------------------|----------|-2--2------|-2--2------|-2-------|-(2)----|
|--------------------|----------|-4--4------|-4--4------|---------|--------|
|--------------------|----------|-----------|-5--5------|---------|--------|


  H.        H.        H.        +H.        H.            +H.
|-0-------|-0-------|-2-------|-(2)------|-2-----------|-(2)-----------|
|-2-------|-0-------|-4-------|-(4)------|-4-----------|-(4)-----------|
|-2-------|-1-------|-4-------|-(4)------|-4-----------|-(4)-----------|
|---------|---------|---------|----------|-------------|---------------|
|---------|---------|---------|----------|-------------|---------------|
|---------|---------|---------|----------|-------------|---------------|
|
| H.        H.        H.        +H.        Q.   E +Q      Q.   E +Q
|---------|---------|---------|----------|-------------|---------------|
|---------|---------|---------|----------|-------------|---------------|
|---------|---------|---------|----------|-------------|---------------|
|-2-------|-2-------|-4-------|-(4)------|-4----4-(4)--|--4----4-(4)---|
|-4-------|-2-------|-6-------|-(6)------|-6----6-(6)--|--6----6-(6)---|
|-5-------|-4-------|-7-------|-(7)------|-7----7-(7)--|--7----7-(7)---|


  Q   E E Q     Q  E E Q    Q  E E Q    Q  E E Q    Q   E E Q     Q   E E Q
|-------------|-----------|-----------|-----------|-------------|-------------|
|-0---0-------|-0--0------|-----------|-----------|-------------|-------------|
|-1---1-------|-1--1------|-2--2------|-2--2------|-------------|-------------|
|-2---2-------|-2--2------|-4--4------|-2--2------|-4---4-------|-4---4-------|
|-------------|-----------|-5--5------|-4--4------|-6---6-------|-6---6-------|
|-------------|-----------|-----------|-----------|-7---7-------|-7---7-------|
|
| E E E E E E   Q  Q   Q    Q  E E Q    Q  E E Q    E E E E E E   E E Q   Q
|-5-5-4-5-5-4-|-4---------|-2--2------|-0--0------|-------------|-------------|
|-5-5-5-5-5-5-|-5---------|-3--3------|-2--2------|-5-5-4-5-5-4-|-4-----------|
|-------------|-----------|-----------|-----------|-4-4-4-4-4-4-|-4-----------|
|-------------|-----------|-----------|-----------|-------------|-------------|
|-------------|-----------|-----------|-----------|-------------|-------------|
|-------------|-----------|-----------|-----------|-------------|-------------|


  Q  Q  Q    Q  Q  Q    Q   E E Q     Q  E E Q    Q  E E Q    Q  E E Q
|----------|----------|-------------|-----------|-----------|------------|
|----------|----------|-------------|-----------|-----------|------------|
|----------|----------|-4---4-------|-4--4------|-2--2------|-2--2-------|
|-------2--|----1--4--|-6---6-------|-6--6------|-4--4------|-2--2-------|
|----4-----|-2--------|-7---7-------|-7--7------|-5--5------|-4--4-------|
|-5--------|----------|-------------|-----------|-----------|------------|
|
| Q  Q  Q    Q  Q  Q    E E E E E E   Q  Q   Q    Q  E E Q    Q  E E Q
|----------|-------2--|-5-5-4-5-5-4-|-4---------|-2--2------|-0--0-------|
|----2--5--|----4-----|-5-5-5-5-5-5-|-5---------|-3--3------|-2--2-------|
|-2--------|-4--------|-------------|-----------|-----------|------------|
|----------|----------|-------------|-----------|-----------|------------|
|----------|----------|-------------|-----------|-----------|------------|
|----------|----------|-------------|-----------|-----------|------------|


  Q   E E Q     Q   E E Q    Q  Q  Q
|-------------|------------|----------|
|-------------|------------|----------|
|-------------|------------|----------|
|-4---4-------|-4---4------|-------2--|
|-6---6-------|-6---6------|----4-----|
|-7---7-------|-7---7------|-5--------|
|
| E E E E E E   E E Q   Q    Q  Q  Q
|-------------|------------|----------|
|-5-5-4-5-5-4-|-4----------|----2--5--|
|-4-4-4-4-4-4-|-4----------|-2--------|
|-------------|------------|----------|
|-------------|------------|----------|
|-------------|------------|----------|


  Q  Q  Q    Q  E E  Q       Q     E  E Q
|----------|--------------|-----------------|
|----------|--------------|-----------------|
|----------|-4--4---------|--4-----4--------|
|----1--4--|-6--6---------|--6-----6--------|
|-2--------|-7--7---------|--7-----7--------|
|----------|--------------|-----------------|
|
| Q  Q  Q    Q  E E  E  E    E  E  E  E Q
|-------2--|--------------|-----------------|
|----4-----|-0--0---12-12-|-12-12-12-12-----|
|-4--------|-1--1---14-14-|-14-13-13-13-----|
|----------|-2--2---------|-----------------|
|----------|--------------|-----------------|
|----------|--------------|-----------------|


  Q  E E Q    Q  E E Q    Q  E E Q     Q   E E  Q      Q  Q  Q    Q  Q  Q
|-----------|-----------|------------|---------------|----------|-----------|
|-----------|-----------|------------|---------------|----------|-----------|
|-2--2------|-2--2------|------------|---------------|----------|-----------|
|-4--4------|-2--2------|-4--4-------|-4---4---------|-------2--|----1--4---|
|-5--5------|-4--4------|-6--6-------|-6---6---------|----4-----|-2---------|
|-----------|-----------|-7--7-------|-7---7---------|-5--------|-----------|
|
| Q  E E Q    Q  E E Q    Q  E E E E   E E E E +E  E   Q  Q  Q    Q  Q  Q
|-----------|-----------|--------2-2-|-2-2---2-(2)---|----------|-----------|
|-----------|-----------|--------5-5-|-5-4---4-(4)---|----------|-----------|
|-2--2------|-2--2------|------------|---------------|----------|-----------|
|-4--4------|-2--2------|-4--4-------|---------------|-------2--|----1--4---|
|-5--5------|-4--4------|-6--6-------|---------------|-0--4-----|-2---------|
|-----------|-----------|-7--7-------|---------------|----------|-----------|


  Q  E E  Q       Q   E E Q     Q   E E Q
|--------------|-------------|-------------|
|--------------|-------------|-------------|
|-4--4---------|--4---4------|--2---2------|
|-6--6---------|--6---6------|--4---4------|
|-7--7---------|--7---7------|--5---5------|
|--------------|-------------|-------------|
|
| Q  E E  E  E    E E E E Q     Q   E E Q
|---------7--7-|--7-7-7-7----|-------------|
|--------10-10-|-10-9-9-9----|-------------|
|-4--4---------|-------------|-------------|
|-6--6---------|-------------|--7---7------|
|-7--7---------|-------------|--9---9------|
|--------------|-------------|-10--10------|


  Q  E E Q    Q  E E Q     Q   E E  Q
|-----------|------------|----------------|
|-----------|------------|----------------|
|-2--2------|------------|----------------|
|-2--2------|-4--4-------|-4---4----------|
|-4--4------|-6--6-------|-6---6----------|
|-----------|-7--7-------|-7---7----------|
|
| Q  E E Q    Q  E E E E   E E E E +E  E
|-----------|--------2-2-|-2-2---2-(2)----|
|-----------|--------5-5-|-5-4---4-(4)----|
|-----------|------------|----------------|
|-7--7------|-4--4-------|----------------|
|-7--7------|-6--6-------|----------------|
|-9--9------|-7--7-------|----------------|


  Q  Q  Q    Q  Q  Q    Q  E E  Q       Q   E E Q     Q   E E Q    Q  E E Q
|----------|----------|--------------|-------------|-------------|------------|
|----------|----------|--------------|-------------|-------------|------------|
|----------|----------|-4--4---------|--4---4------|--2---2------|-2--2-------|
|-------2--|----1--4--|-6--6---------|--6---6------|--4---4------|-2--2-------|
|----4-----|-2--------|-7--7---------|--7---7------|--5---5------|-4--4-------|
|-5--------|----------|--------------|-------------|-------------|------------|
|
| Q  Q  Q    Q  Q  Q    Q  E E  E  E    E E E E Q     Q   E E Q    Q  E E Q
|----------|----------|---------7--7-|--7-7-7-7----|-------------|------------|
|----------|----------|--------10-10-|-10-9-9-9----|-------------|------------|
|----------|----------|-4--4---------|-------------|-------------|------------|
|-------2--|----1--4--|-6--6---------|-------------|--7---7------|-7--7-------|
|-0--4-----|-2--------|-7--7---------|-------------|--9---9------|-7--7-------|
|----------|----------|--------------|-------------|-10--10------|-9--9-------|


  Q  E E Q     Q   E E  Q      Q  Q  Q
|------------|---------------|----------|
|------------|---------------|----------|
|------------|---------------|----------|
|-4--4-------|-4---4---------|-------2--|
|-6--6-------|-6---6---------|----4-----|
|-7--7-------|-7---7---------|-5--------|
|
| Q  E E E E   E E E E +E  E   Q  Q  Q
|--------2-2-|-2-2---2-(2)---|----------|
|--------5-5-|-5-4---4-(4)---|----------|
|------------|---------------|----------|
|-4--4-------|---------------|-------2--|
|-6--6-------|---------------|-0--4-----|
|-7--7-------|---------------|----------|


  Q  Q  Q    Q  E E  Q       Q   E E Q
|----------|--------------|--------------|
|----------|--------------|--------------|
|----------|-4--4---------|--4---4-------|
|----1--4--|-6--6---------|--6---6-------|
|-2--------|-7--7---------|--7---7-------|
|----------|--------------|--------------|
|
| Q  Q  Q    Q  E E  E  E    E E E E Q
|----------|---------7--7-|--7-7-7-7-----|
|----------|--------10-10-|-10-9-9-9-----|
|----------|-4--4---------|--------------|
|----1--4--|-6--6---------|--------------|
|-2--------|-7--7---------|--------------|
|----------|--------------|--------------|


   Q   E E Q    Q  E E Q    Q  E E Q     Q   E E  Q      Q  Q  Q    Q  Q  Q
|-------------|-----------|------------|---------------|----------|-----------|
|-------------|-----------|------------|---------------|----------|-----------|
|--2---2------|-2--2------|------------|---------------|----------|-----------|
|--4---4------|-2--2------|-4--4-------|-4---4---------|-------2--|----1--4---|
|--5---5------|-4--4------|-6--6-------|-6---6---------|----4-----|-2---------|
|-------------|-----------|-7--7-------|-7---7---------|-5--------|-----------|
|
|  Q   E E Q    Q  E E Q    Q  E E E E   E E E E +E  E   Q  Q  Q    Q  Q  Q
|-------------|-----------|--------2-2-|-2-2---2-(2)---|----------|-----------|
|-------------|-----------|--------5-5-|-5-4---4-(4)---|----------|-----------|
|-------------|-----------|------------|---------------|----------|-----------|
|--7---7------|-7--7------|-4--4-------|---------------|-------2--|----1--4---|
|--9---9------|-7--7------|-6--6-------|---------------|-0--4-----|-2---------|
|-10--10------|-9--9------|-7--7-------|---------------|----------|-----------|


  Gtrs I, II
  Q  Q  Q
|------------*|
|------------*|
|-4----------*|
|-6----------*|
|-7----------*|
|------------*|


Duration Legend
---------------
W - whole; H - half; Q - quarter; E - 8th; S - 16th; T - 32nd; X - 64th; a - acciaccatura
+ - note tied to previous; . - note dotted; .. - note double dotted
Uncapitalized letters represent notes that are staccato (1/2 duration)
Irregular groupings are notated above the duration line
Duration letters will always appear directly above the note/fret number it represents the
duration for.  Duration letters with no fret number below them represent rests.  Multi-
bar rests are notated in the form Wxn, where n is the number of bars to rest for.  Low
melody durations appear below the staff

Tablature Legend
----------------
 h   - hammer-on
 p   - pull-off
 b   - bend
 pb  - pre-bend
 r   - bend release (if no number after the r, then release immediately)
 /\  - slide into or out of (from/to "nowhere")
 s   - legato slide
 S   - shift slide
  - natural harmonic
[n]  - artificial harmonic
n(n) - tapped harmonic
 ~   - vibrato
 tr  - trill
 T   - tap
 TP  - trem. picking
 PM  - palm muting
\n/  - tremolo bar dip; n = amount to dip
 \n  - tremolo bar down
 n/  - tremolo bar up
/n\  - tremolo bar inverted dip
 =   - hold bend; also acts as connecting device for hammers/pulls
 <>  - volume swell (louder/softer)
 x   - on rhythm slash represents muted slash
 o   - on rhythm slash represents single note slash

Misc Legend
-----------
 |  - bar
||  - double bar
||o - repeat start
o|| - repeat end
*|  - double bar (ending)
 :  - bar (freetime)
 $  - Segno
 &  - Coda
Tempo markers -  = BPM(8/16=s8/s16), where s8 = swing 8ths, s16 = swing 16ths


***************************************************************************************
* Generated using Power Tab Editor by Brad Larsen - http://powertab.guitarnetwork.org *
***************************************************************************************
comments
We did not receive enough feedback on this tab! Please rate:
print report bad tab
1 2 3 4 5
I want to post or [tab]
guest
You may want to rate the tab now too:
select rating
Please do not post tabs as comments. Select "correction" instead!