Oops, an error
Loading. Please wait.

If Id Been The One Tab

ver1
ver1

Whole song

Interactive

More versions @911Tabs.com
2,836 views 9 this week
no commentswrite comment
1 2 3 4 5
please rate
Autoscroll
+/-
esc
set tempo
stop
Contributor
Difficulty
intermediate
Hey! There's an official Ultimate Guitar app which is ideal
for learning songs when you're away from computer. Get the app
WARNING: You are trying to view
                                    content from Ultimate-Guitar.com
                                    in an unauthorized application,
                                    which is prohibited.

                                    Please use an official Ultimate
                                    Guitar Tabs application for iPhone,
                                    iPad or Android to access legitimate
                                    chords, guitar, bass, and drum tabs
                                    from Ultimate-Guitar.com database.

                                    Type "ultimate guitar tabs" in Apple
                                    App Store's or Android Market's
                                    search to find the application.
-----------------------------------------------------------------------------

               If I'd Been the One - 38 Special (GUITAR)
            
-----------------------------------------------------------------------------
Tabbed by: Scotto10

Tuning: Standard

=============================================================================


Guitar 1



     Q    Q    E  Q    E     Q.     Q    Q    E     W                 
E||-----------------------|----------------------|-------------------|
B||-------0----L----------|--1------0------------|--0----------------|
G||---------------2----0--|--------------2----0--|-------------------|
D||-----------------------|----------------------|-------------------|
A||-----------------------|----------------------|-------------------|
E||-----------------------|----------------------|-------------------|


  Q.     Q    Q.        Q.     Q    Q.        Q.     Q    Q.      
---------------------|---------------------|---------------------|
--1------0-----------|--0------------------|--1------0-----------|
--------------2------|---------2----0------|--------------0------|
---------------------|---------------------|---------------------|
---------------------|---------------------|---------------------|
---------------------|---------------------|---------------------|


  E  E  E  E  H           Q.     E  E  E  E  E     Q    Q    E  Q.      
-----------------------|---------0--L-----------|----------------------|
-----------1--L--------|--L------------1--------|-------0----L---------|
--------0--------------|------------------0-----|---------------2------|
-----2-----------------|---------------------2--|----------------------|
--3--------------------|------------------------|----------------------|
-----------------------|------------------------|----------------------|


  Q.     Q.     E  E     W                   Q.     Q    Q    E   
----------------------|-------------------|----------------------|
--1------0------------|--0----------------|--1------0------------|
----------------2--0--|-------------------|--------------2----0--|
----------------------|-------------------|----------------------|
----------------------|-------------------|----------------------|
----------------------|-------------------|----------------------|


  Q.     Q    Q.        Q.     Q    E  E  E     E  E  E  H        E   
---------------------|-----------------------|--------------------0--|
--0------------------|--1------0-------------|-----------1-----------|
---------2----0------|--------------0--------|--------0--------------|
---------------------|-----------------2--0--|-----2-----------------|
---------------------|-----------------------|--3--------------------|
---------------------|-----------------------|-----------------------|


  H        E  E  Q       Q    Q    E  Q.        Q.     Q.     E  E   
--L--------L----------|----------------------|----------------------|
--------------1-------|-------0----L---------|--1------0---------0--|
-----------------0----|---------------2------|----------------2-----|
----------------------|--0-------------------|----------------------|
----------------------|----------------------|----------------------|
----------------------|----------------------|----------------------|


  W                   Q.     Q    Q    E     Q.     Q    Q.      
-------------------|----------------------|---------------------|
--0----------------|--1------0------------|--0------------------|
-------------------|--------------2----0--|---------2----0------|
-------------------|----------------------|---------------------|
-------------------|----------------------|---------------------|
-------------------|----------------------|---------------------|


  Q.     Q    E  E  E     E  E  E  E  E  E  E  E     W                 
-----------------------|-----------------------0--|--L----------------|
--1------0-------------|-----------1--------1-----|-------------------|
--------------0--------|--------0--------0--------|-------------------|
-----------------2--0--|-----2--------2-----------|-------------------|
-----------------------|--3-----------------------|-------------------|
-----------------------|--------------------------|-------------------|


  H        E  E  E   E      W                    W                 
--------------------10--|---L----------------|---L----------------|
-----------------8------|--------------------|--------------------|
--------------9---------|--------------------|--------------------|
------------------------|--------------------|--------------------|
------------------------|--------------------|--------------------|
------------------------|--------------------|--------------------|


  W                   H        E  E  E   E      W                 
-------------------|--------------------10--|---L----------------|
-------------------|-----------------8------|--------------------|
-------------------|--------------9---------|--------------------|
-------------------|------------------------|--------------------|
-------------------|------------------------|--------------------|
-------------------|------------------------|--------------------|


   W                   H.           E  S S    W                 
---L----------------|------------------3-3-|--3----------------|
--------------------|------------------3-3-|--3----------------|
--------------------|------------------4-4-|--4----------------|
--------------------|------------------5-5-|--5----------------|
--------------------|----------------------|-------------------|
--------------------|----------------------|-------------------|


  Q    E  E  E  E  E  E     E  E  H.              E  E  E  E  E  E  E  S S  
--2----2--3-----2-----3--|--3-----0------------|--2--2--2--3-----3-----3-3-|
--3----3--3-----3-----5--|--5-----1------------|--3--3--3--3-----5-----3-3-|
--2----2--4-----2-----5--|--5-----2------------|--2--2--2--4-----5-----4-4-|
--0----------------------|---------------------|-----------------------5-5-|
-------------------------|---------------------|---------------------------|
-------------------------|---------------------|---------------------------|


  W                   Q    E  E  E  E  E  E     E  E  H.            
--3----------------|--2----2--3-----2-----3--|--3------------------|
--3----------------|--3----3--3-----3-----5--|--5-----5------------|
--4----------------|--2----2--4-----2-----5--|--5-----5------------|
--5----------------|--0----------------------|--------5------------|
-------------------|-------------------------|---------------------|
-------------------|-------------------------|---------------------|


  Q    E  Q    E  Q       H        E  E  E   E      W                 
-----------------------|--------------------10--|---L----------------|
--7----7--7----7--7----|-----------------8------|--------------------|
--7----7--7----7--7----|--------------9---------|--------------------|
--7----7--7----7--7----|------------------------|--------------------|
-----------------------|------------------------|--------------------|
-----------------------|--0---------------------|--------------------|


  W                   W                   Q    Q    E  Q.      
-------------------|-------------------|----------------------|
-------------------|-------------------|-------0----L---------|
-------------------|-------------------|---------------2------|
-------------------|-------------------|----------------------|
-------------------|-------------------|----------------------|
-------------------|-------------------|----------------------|


  Q.     Q.     E  E     W                   Q.     Q    Q    E   
----------------------|-------------------|----------------------|
--1------0------------|--0----------------|--1------0------------|
----------------2--0--|-------------------|--------------2----0--|
----------------------|-------------------|----------------------|
----------------------|-------------------|----------------------|
----------------------|-------------------|----------------------|


  Q.     Q    Q.        Q.     Q    E  E  E     E  E  E  H        E   
---------------------|-----------------------|--------------------0--|
--0------------------|--1------0-------------|-----------1-----------|
---------2----0------|--------------0--------|--------0--------------|
---------------------|-----------------2--0--|-----2-----------------|
---------------------|-----------------------|--3--------------------|
---------------------|-----------------------|-----------------------|


  H        E  E  Q       Q    Q    E  Q.        Q.     Q.     E  E   
--L--------L----------|----------------------|----------------------|
--------------1-------|-------0----L---------|--1------0---------0--|
-----------------0----|---------------2------|----------------2-----|
----------------------|--0-------------------|----------------------|
----------------------|----------------------|----------------------|
----------------------|----------------------|----------------------|


  W                   Q.     Q    Q    E     Q.     Q    Q.      
-------------------|----------------------|---------------------|
--0----------------|--1------0------------|--0------------------|
-------------------|--------------2----0--|---------2----0------|
-------------------|----------------------|---------------------|
-------------------|----------------------|---------------------|
-------------------|----------------------|---------------------|


  Q.     Q    E  E  E     E  E  E  E  E  E  E  E     W                 
-----------------------|-----------------------0--|--L----------------|
--1------0-------------|-----------1--------1-----|-------------------|
--------------0--------|--------0--------0--------|-------------------|
-----------------2--0--|-----2--------2-----------|-------------------|
-----------------------|--3-----------------------|-------------------|
-----------------------|--------------------------|-------------------|


  H        E  E  E   E      W                    W                 
--------------------10--|---L----------------|---L----------------|
-----------------8------|--------------------|--------------------|
--------------9---------|--------------------|--------------------|
------------------------|--------------------|--------------------|
------------------------|--------------------|--------------------|
------------------------|--------------------|--------------------|


  W                   H        E  E  E   E      W                 
-------------------|--------------------10--|---L----------------|
-------------------|-----------------8------|--------------------|
-------------------|--------------9---------|--------------------|
-------------------|------------------------|--------------------|
-------------------|------------------------|--------------------|
-------------------|------------------------|--------------------|


   W                   H.           E  S S    W                 
---L----------------|------------------3-3-|--3----------------|
--------------------|------------------3-3-|--3----------------|
--------------------|------------------4-4-|--4----------------|
--------------------|------------------5-5-|--5----------------|
--------------------|----------------------|-------------------|
--------------------|----------------------|-------------------|


  Q    E  E  E  E  E  E     E  E  H.              E  E  E  E  E  E  E  S S  
--2----2--3-----2-----3--|--3-----0------------|--2--2--2--3-----3-----3-3-|
--3----3--3-----3-----5--|--5-----1------------|--3--3--3--3-----5-----3-3-|
--2----2--4-----2-----5--|--5-----2------------|--2--2--2--4-----5-----4-4-|
--0----------------------|---------------------|-----------------------5-5-|
-------------------------|---------------------|---------------------------|
-------------------------|---------------------|---------------------------|


  W                   Q    E  E  E  E  E  E     E  E  H.            
--3----------------|--2----2--3-----2-----3--|--3------------------|
--3----------------|--3----3--3-----3-----5--|--5-----5------------|
--4----------------|--2----2--4-----2-----5--|--5-----5------------|
--5----------------|--0----------------------|--------5------------|
-------------------|-------------------------|---------------------|
-------------------|-------------------------|---------------------|


  Q    E  Q    E  Q       W                   Q    E  E  E  E  E  E   
-----------------------|--3----------------|--2----2--3-----2-----3--|
--7----7--7----7--7----|--3----------------|--3----3--3-----3-----5--|
--7----7--7----7--7----|--4----------------|--2----2--4-----2-----5--|
--7----7--7----7--7----|--5----------------|--0----------------------|
-----------------------|-------------------|-------------------------|
-----------------------|-------------------|-------------------------|


  E  E  H.              E  E  E  E  E  E  E  S S    W                 
--3-----0------------|--2--2--2--3-----3-----3-3-|--3----------------|
--5-----1------------|--3--3--3--3-----3-----3-3-|--3----------------|
--5-----2------------|--2--2--2--4-----5-----4-4-|--4----------------|
---------------------|-----------------------5-5-|--5----------------|
---------------------|---------------------------|-------------------|
---------------------|---------------------------|-------------------|


  Q    E  E  E  E  E  E     E  E  H.              Q    E  Q    E  Q     
--2----2--3-----2-----3--|--3------------------|-----------------------|
--3----3--3-----3-----5--|--5-----5------------|--7----7--7----7--7----|
--2----2--4-----2-----5--|--5-----5------------|--7----7--7----7--7----|
--0----------------------|--------5------------|--7----7--7----7--7----|
-------------------------|---------------------|-----------------------|
-------------------------|---------------------|-----------------------|


  Q    Q.     Q.        Q.     Q.     E  E     E  E  Q.     Q    E   
---------------------|----------------------|-----------------------|
-------3------3------|--3------3------3--3--|--3--3--3------3----3--|
-------4------2------|--5------4------2--0--|--0--2--4------2----0--|
---------------------|----------------------|-----------------------|
---------------------|----------------------|-----------------------|
---------------------|----------------------|-----------------------|


  Q    E  Q    E  E  E     E  E  Q    E  E  E  E     E  E  E  E  E  E  E  E   
------------------------|-------------------------|--------------------------

|
--3----3--3----3--3--3--|--3--3--3----3--3--3--3--|--3--3--3--3--3--3--3--3--

|
--5----5--4----4--2--0--|--0--2--4----4--2--2--0--|--5--5--5--4--4--4--2--0--

|
------------------------|-------------------------|--------------------------

|
------------------------|-------------------------|--------------------------

|
------------------------|-------------------------|--------------------------

|


  E  E  Q    E  E  E  E     E  E  E  E  E  E  E  E     W                 
-------------------------|--------------------------|--0----------------|
--3--3--3----3--3--3--3--|--3--3--3--3--3--3--3--3--|--1----------------|
--0--2--4----4--2--2--0--|--5--5--5--4--4--4--2--0--|--2----------------|
-------------------------|--------------------------|--2----------------|
-------------------------|--------------------------|--0----------------|
-------------------------|--------------------------|-------------------|


  W                   H        E  E  E  E     Q    E  E  E  E  E  E   
--L----------------|-----------3--------2--|--L----------3--2--------|
--L----------------|--------------1--------|-------1-----------1-----|
--L----------------|-----------------2-----|----------2-----------2--|
--L----------------|-----------------------|-------------------------|
--L----------------|-----------------------|-------------------------|
-------------------|-----------------------|-------------------------|


                      PM PM                                               
  W                   E  E  E  E  E  E  E  E     E  E  E  E  E  E  E  E   
--0----------------|--------------------------|--------------------------|
--1----------------|--1--1--1--1--1--3-----1--|--1--1--1--1--1--1--1--1--|
--2----------------|--2--2--2--2--2--0-----0--|--0--0--0--0--0--0--0--0--|
--2----------------|--2--2--2--2--2--0-----2--|--2--2--2--2--2--2--2--2--|
--0----------------|--0--0--0--0--0--2-----3--|--3--3--3--3--3--3--3--3--|
-------------------|--------------------------|--------------------------|


  E  E  E  E  E  E  E  E     W                   Q    E  E  E  E  E  E   
--2--2--2--2--2--2--2--2--|--3----------------|--2----2--3-----2-----3--|
--3--3--3--3--3--3--3--3--|--3----------------|--3----3--3-----3-----5--|
--2--2--2--2--2--2--2--2--|--4----------------|--2----2--4-----2-----5--|
--0--0--0--0--0--0--0--0--|--5----------------|--0----------------------|
--------------------------|-------------------|-------------------------|
--------------------------|-------------------|-------------------------|


  E  E  H.              E  E  E  E  E  E  E  S S    W                 
--3-----0------------|--2--2--2--3-----3-----3-3-|--3----------------|
--5-----1------------|--3--3--3--3-----5-----3-3-|--3----------------|
--5-----2------------|--2--2--2--4-----5-----4-4-|--4----------------|
---------------------|-----------------------5-5-|--5----------------|
---------------------|---------------------------|-------------------|
---------------------|---------------------------|-------------------|


  Q    E  E  E  E  E  E     E  E  H.              Q    E  Q    E  Q     
--2----2--3-----2-----3--|--3------------------|-----------------------|
--3----3--3-----3-----5--|--5-----5------------|--7----7--7----7--7----|
--2----2--4-----2-----5--|--5-----5------------|--7----7--7----7--7----|
--0----------------------|--------5------------|--7----7--7----7--7----|
-------------------------|---------------------|-----------------------|
-------------------------|---------------------|-----------------------|


  W                   Q    E  E  E  E  E  E     E  E  H.            
--3----------------|--2----2--3-----2-----3--|--3-----0------------|
--3----------------|--3----3--3-----3-----5--|--5-----1------------|
--4----------------|--2----2--4-----2-----5--|--5-----2------------|
--5----------------|--0----------------------|---------------------|
-------------------|-------------------------|---------------------|
-------------------|-------------------------|---------------------|


  E  E  E  E  E  E  E  S S    W                   Q    E  E  E  E  E  E   
--2--2--2--3-----3-----3-3-|--3----------------|--2----2--3-----2-----3--|
--3--3--3--3-----5-----3-3-|--3----------------|--3----3--3-----3-----5--|
--2--2--2--4-----5-----4-4-|--4----------------|--2----2--4-----2-----5--|
-----------------------5-5-|--5----------------|--0----------------------|
---------------------------|-------------------|-------------------------|
---------------------------|-------------------|-------------------------|


  E  E  H.              Q    E  Q    E  E  E     Q    Q    E  E  E  E   
--3------------------|------------------------|------------------------|
--5-----5------------|--7----7--7----7--7--7--|-------3----3--3--3--3--|
--5-----5------------|--7----7--7----7--7--7--|-------4----4--2--2--0--|
--------5------------|--7----7--7----7--7--7--|------------------------|
---------------------|------------------------|------------------------|
---------------------|------------------------|------------------------|


  E  E  E  E  E  E  E  E     E  E  E  E  E  E  E  E   
--------------------------|--------------------------|
--3--3--3--3--3--3--3--3--|--3--3--3--3--3--3--3--3--|
--5--5--5--4--4--4--2--0--|--0--2--4--4--4--2--2--0--|
--------------------------|--------------------------|
--------------------------|--------------------------|
--------------------------|--------------------------|


  E  E  E  E  E  E  E  E     E  E  E  E  E  E  E  E   
--------------------------|--------------------------|
--3--3--3--3--3--3--3--3--|--3--3--3--3--3--3--3--3--|
--5--5--5--4--4--4--2--0--|--0--2--4--4--4--2--2--0--|
--------------------------|--------------------------|
--------------------------|--------------------------|
--------------------------|--------------------------|


  E  E  E  E  E  E  E  E     E  E  E  E  E  E  E  E   
--------------------------|--------------------------|
--3--3--3--3--3--3--3--3--|--3--3--3--3--3--3--3--3--|
--5--5--5--4--4--4--2--0--|--0--2--4--4--4--2--2--0--|
--------------------------|--------------------------|
--------------------------|--------------------------|
--------------------------|--------------------------|


  E  E  E  E  E  E  E  E     E  E  E  E  E  E  E  E   
--------------------------|--------------------------|
--3--3--3--3--3--3--3--3--|--3--3--3--3--3--3--3--3--|
--5--5--5--4--4--4--2--0--|--0--2--4--4--4--2--2--0--|
--------------------------|--------------------------|
--------------------------|--------------------------|
--------------------------|--------------------------|


  E  E  E  E  E  E  E  E     E  E  E  E  E  E  E  E   
--------------------------|--------------------------|
--3--3--3--3--3--3--3--3--|--3--3--3--3--3--3--3--3--|
--5--5--5--4--4--4--2--0--|--0--2--4--4--4--2--2--0--|
--------------------------|--------------------------|
--------------------------|--------------------------|
--------------------------|--------------------------|


  E  E  E  E  E  E  E  E     E  E  E  E  E  E  E  E   
--------------------------|--------------------------|
--3--3--3--3--3--3--3--3--|--3--3--3--3--3--3--3--3--|
--5--4--2--0--2--4--2--0--|--0--2--4--4--4--2--2--0--|
--------------------------|--------------------------|
--------------------------|--------------------------|
--------------------------|--------------------------|


  E  E  E  E  E  E  E  E     E  E  E  E  E  E  E  E   
--------------------------|--------------------------|
--3--3--3--3--3--3--3--3--|--3--3--3--3--3--3--3--3--|
--5--5--5--4--4--4--2--0--|--0--2--4--4--4--2--2--0--|
--------------------------|--------------------------|
--------------------------|--------------------------|
--------------------------|--------------------------|


  E  E  E  E  E  E  E  E     E  E  E  E  E  E  E  E   
--------------------------|--------------------------|
--3--3--3--3--3--3--3--3--|--3--3--3--3--3--3--3--3--|
--5--4--2--0--2--4--2--0--|--0--2--4--4--4--2--2--0--|
--------------------------|--------------------------|
--------------------------|--------------------------|
--------------------------|--------------------------|


  E  E  E  E  E  E  E  E     E  E  E  E  E  E  E  E   
--------------------------|--------------------------|
--3--3--3--3--3--3--3--3--|--3--3--3--3--3--3--3--3--|
--5--5--5--4--4--4--2--0--|--0--2--4--4--4--2--2--0--|
--------------------------|--------------------------|
--------------------------|--------------------------|
--------------------------|--------------------------|


  E  E  E  E  E  E  E  E    
--------------------------||
--3--3--3--3--3--3--3--3--||
--5--4--2--0--2--4--2--0--||
--------------------------||
--------------------------||
--------------------------||




========================================================
========================================================


Guitar 2



     PM PM PM PM PM PM PM PM    PM PM PM PM PM PM PM PM  
     E  E  E  E  E  E  E  E     E  E  E  E  E  E  E  E   
E||--------------------------|--------------------------|
B||--------------------------|--------------------------|
G||--------------------------|--------------------------|
D||--------------------------|--------------------------|
A||--5--5--5--5--5--5--5--5--|--5--5--5--5--5--5--5--5--|
E||--3--3--3--3--3--3--3--3--|--3--3--3--3--3--3--3--3--|


  PM PM PM PM PM PM PM PM    PM PM PM PM PM PM PM PM  
  E  E  E  E  E  E  E  E     E  E  E  E  E  E  E  E   
--------------------------|--------------------------|
--------------------------|--------------------------|
--------------------------|--------------------------|
--------------------------|--------------------------|
--5--5--5--5--5--5--5--5--|--5--5--5--5--5--5--5--5--|
--3--3--3--3--3--3--3--3--|--3--3--3--3--3--3--3--3--|


  PM PM PM PM PM PM PM PM    PM PM PM PM PM PM PM PM  
  E  E  E  E  E  E  E  E     E  E  E  E  E  E  E  E   
--------------------------|--------------------------|
--------------------------|--------------------------|
--------------------------|--------------------------|
--------------------------|--------------------------|
--2--2--2--2--2--2--2--2--|--2--2--2--2--2--2--2--2--|
--0--0--0--0--0--0--0--0--|--0--0--0--0--0--0--0--0--|


  PM PM PM PM PM PM PM PM    PM PM PM PM PM PM PM PM  
  E  E  E  E  E  E  E  E     E  E  E  E  E  E  E  E   
--------------------------|--------------------------|
--------------------------|--------------------------|
--------------------------|--------------------------|
--5--5--5--5--5--5--5--5--|--5--5--5--5--5--5--5--5--|
--3--3--3--3--3--3--3--3--|--3--3--3--3--3--3--3--3--|
--------------------------|--------------------------|


  PM PM PM PM PM PM PM PM    PM PM PM PM PM PM PM PM  
  E  E  E  E  E  E  E  E     E  E  E  E  E  E  E  E   
--------------------------|--------------------------|
--------------------------|--------------------------|
--------------------------|--------------------------|
--------------------------|--------------------------|
--5--5--5--5--5--5--5--5--|--5--5--5--5--5--5--5--5--|
--3--3--3--3--3--3--3--3--|--3--3--3--3--3--3--3--3--|


  PM PM PM PM PM PM PM PM    PM PM PM PM PM PM PM PM  
  E  E  E  E  E  E  E  E     E  E  E  E  E  E  E  E   
--------------------------|--------------------------|
--------------------------|--------------------------|
--------------------------|--------------------------|
--------------------------|--------------------------|
--5--5--5--5--5--5--5--5--|--5--5--5--5--5--5--5--5--|
--3--3--3--3--3--3--3--3--|--3--3--3--3--3--3--3--3--|


  PM PM PM PM PM PM PM PM    PM PM PM PM PM PM PM PM  
  E  E  E  E  E  E  E  E     E  E  E  E  E  E  E  E   
--------------------------|--------------------------|
--------------------------|--------------------------|
--------------------------|--------------------------|
--9--9--9--9--9--9--9--9--|--9--9--9--9--9--9--9--9--|
--7--7--7--7--7--7--7--7--|--7--7--7--7--7--7--7--7--|
--------------------------|--------------------------|


  PM PM PM PM PM PM PM PM    PM PM PM PM PM PM PM PM  
  E  E  E  E  E  E  E  E     E  E  E  E  E  E  E  E   
--------------------------|--------------------------|
--------------------------|--------------------------|
--------------------------|--------------------------|
--5--5--5--5--5--5--5--5--|--5--5--5--5--5--5--5--5--|
--3--3--3--3--3--3--3--3--|--3--3--3--3--3--3--3--3--|
--------------------------|--------------------------|


  PM PM PM PM PM PM PM PM    PM PM PM PM PM PM PM PM  
  E  E  E  E  E  E  E  E     E  E  E  E  E  E  E  E   
--------------------------|--------------------------|
--------------------------|--------------------------|
--------------------------|--------------------------|
--------------------------|--------------------------|
--5--5--5--5--5--5--5--5--|--5--5--5--5--5--5--5--5--|
--3--3--3--3--3--3--3--3--|--3--3--3--3--3--3--3--3--|


  PM PM PM PM PM PM PM PM    PM PM PM PM PM PM PM PM  
  E  E  E  E  E  E  E  E     E  E  E  E  E  E  E  E   
--------------------------|--------------------------|
--------------------------|--------------------------|
--------------------------|--------------------------|
--------------------------|--------------------------|
--5--5--5--5--5--5--5--5--|--5--5--5--5--5--5--5--5--|
--3--3--3--3--3--3--3--3--|--3--3--3--3--3--3--3--3--|


  PM PM PM PM PM PM PM PM    PM PM PM PM PM PM PM PM  
  E  E  E  E  E  E  E  E     E  E  E  E  E  E  E  E   
--------------------------|--------------------------|
--------------------------|--------------------------|
--------------------------|--------------------------|
--9--9--9--9--9--9--9--9--|--9--9--9--9--9--9--9--9--|
--7--7--7--7--7--7--7--7--|--7--7--7--7--7--7--7--7--|
--------------------------|--------------------------|


  PM PM PM PM PM PM PM PM    PM PM >  >  >  >  >      
  E  E  E  E  E  E  E  E     E  E  E  E  E  E  E  E   
--------------------------|--------------------------|
--------------------------|--------------------------|
--------------------------|--------------------------|
--5--5--5--5--5--5--5--5--|--5--5--5--5--5--7--7--9--|
--3--3--3--3--3--3--3--3--|--3--3--3--3--3--5--5--7--|
--------------------------|--------------------------|


  PM PM PM PM PM PM PM PM    PM PM PM PM PM PM PM     
  E  E  E  E  E  E  E  E     E  E  E  E  E  E  E  E   
--------------------------|--------------------------|
--------------------------|--------------------------|
--------------------------|--------------------------|
--L-----9-----9-----9-----|--9-----9-----9-----9--5--|
--L--7--7--7--7--7--7--7--|--7--7--7--7--7--7--7--3--|
--------------------------|--------------------------|


     PM PM PM PM PM PM          PM PM PM PM PM PM PM  
  E  E  E  E  E  E  E  E     E  E  E  E  E  E  E  E   
--------------------------|--------------------------|
--------------------------|--------------------------|
--------------------------|--------------------------|
--L-----5-----5-----5--7--|--L-----7-----7-----7--7--|
--L--3--3--3--3--3--3--5--|--L--5--5--5--5--5--5--5--|
--------------------------|--------------------------|


  PM PM PM PM PM PM PM PM    PM PM PM PM PM PM PM PM   
  E  E  E  E  E  E  E  E     E  E  E  E  E  E  E  E    
--------------------------|---------------------------|
--------------------------|---------------------------|
--------------------------|---------------------------|
--9-----9-----9-----9-----|--9-----9-----9-----9--9s--|
--7--7--7--7--7--7--7--7--|--7--7--7--7--7--7--7--7s--|
--------------------------|---------------------------|


  >  PM PM PM PM PM                      >  >  >  >                           

 
  E  E  E  E  E  E  E  E     E  E  E  E  E  E  E  E     Q    Q    E  E  E  E  

 
--------------------------|--------------------------|--3----3---------------

-|
--------------------------|--------------------------|--3----3---------------

-|
--------------------------|--------------------------|--0----0----0--0--0--0-

-|
--5--5--5--5--5--5--5--5--|--4--4--4--4--4--4--4--4--|--0----0----0--0--0--0-

-|
--3--3--3--3--3--3--3--3--|--2--2--2--2--2--2--2--2--|-----------------------

-|
--------------------------|--------------------------|--3----3----3--3--3--3-

-|


  Q.     Q    Q    E     Q.     E  Q.     E     Q.     Q    Q    E   
--2------3----2----0--|--0------0--0------0--|--2------3----2----3--|
--3------3----3----1--|--1------1--1------1--|--3------3----3----3--|
--2------0----2----0--|--0------0--0------0--|--2------0----2----0--|
--0------0----0----2--|--2------2--2------2--|--0------0----0----0--|
-------------------0--|--0------0--0------0--|--------------0-------|
--2------3----2-------|----------------------|--2------3---------3--|


  Q    Q    E  E  E  E     Q.     Q    Q    E     Q.     E  E  E  E  E   
--3----3----------------|--2------3----2----0--|--0------0--0--0--0--0--|
--3----3----------------|--3------3----3----1--|--1------1--1--1--1--1--|
--0----0----0--0--0--0--|--2------0----2----0--|--0------0--0--0--0--0--|
--0----0----0--0--0--0--|--0------0----0----2--|--2------2--2--2--2--2--|
------------------------|-------------------0--|--0------0--0--0--0--0--|
--3----3----3--3--3--3--|--2------3----2-------|------------------------|


                             PM PM PM PM PM PM PM PM  
  E  E  E  E  E  E  E  E     E  E  E  E  E  E  E  E   
--------------------------|--------------------------|
--3--3--3--3--3--3--3-----|--------------------------|
--2--2--2--2--2--2--2--x--|--------------------------|
--0--0--0--0--0--0--0--x--|--9--9--9--9--9--9--9--9--|
-----------------------x--|--7--7--7--7--7--7--7--7--|
--------------------------|--------------------------|


  PM PM PM PM PM PM PM PM     PM PM PM PM PM PM PM PM   
  E  E  E  E  E  E  E  E      E  E  E  E  E  E  E  E    
---------------------------|---------------------------|
---------------------------|---------------------------|
---------------------------|---------------------------|
--9--9--9--9--9--9--9--9s--|--5--5--5--5--5--5--5--5s--|
--7--7--7--7--7--7--7--7s--|--3--3--3--3--3--3--3--3s--|
---------------------------|---------------------------|


  PM PM PM PM PM PM PM       PM PM PM PM PM PM PM PM  
  E  E  E  E  E  E  E  E     E  E  E  E  E  E  E  E   
--------------------------|--------------------------|
--------------------------|--------------------------|
--------------------------|--------------------------|
--7--7--7--7--7--7--7--x--|--------------------------|
--5--5--5--5--5--5--5--x--|--5--5--5--5--5--5--5--5--|
--------------------------|--3--3--3--3--3--3--3--3--|


  PM PM PM PM PM PM PM PM    PM PM PM PM PM PM PM PM  
  E  E  E  E  E  E  E  E     E  E  E  E  E  E  E  E   
--------------------------|--------------------------|
--------------------------|--------------------------|
--------------------------|--------------------------|
--------------------------|--------------------------|
--5--5--5--5--5--5--5--5--|--5--5--5--5--5--5--5--5--|
--3--3--3--3--3--3--3--3--|--3--3--3--3--3--3--3--3--|


  PM PM PM PM PM PM PM PM    PM PM PM PM PM PM PM PM  
  E  E  E  E  E  E  E  E     E  E  E  E  E  E  E  E   
--------------------------|--------------------------|
--------------------------|--------------------------|
--------------------------|--------------------------|
--------------------------|--9--9--9--9--9--9--9--9--|
--5--5--5--5--5--5--5--5--|--7--7--7--7--7--7--7--7--|
--3--3--3--3--3--3--3--3--|--------------------------|


  PM PM PM PM PM PM PM PM    PM PM PM PM PM PM PM PM  
  E  E  E  E  E  E  E  E     E  E  E  E  E  E  E  E   
--------------------------|--------------------------|
--------------------------|--------------------------|
--------------------------|--------------------------|
--9--9--9--9--9--9--9--9--|--5--5--5--5--5--5--5--5--|
--7--7--7--7--7--7--7--7--|--3--3--3--3--3--3--3--3--|
--------------------------|--------------------------|


  PM PM PM PM PM PM PM PM    PM PM PM PM PM PM PM PM  
  E  E  E  E  E  E  E  E     E  E  E  E  E  E  E  E   
--------------------------|--------------------------|
--------------------------|--------------------------|
--------------------------|--------------------------|
--5--5--5--5--5--5--5--5--|--------------------------|
--3--3--3--3--3--3--3--3--|--5--5--5--5--5--5--5--5--|
--------------------------|--3--3--3--3--3--3--3--3--|


  PM PM PM PM PM PM PM PM    PM PM PM PM PM PM PM PM  
  E  E  E  E  E  E  E  E     E  E  E  E  E  E  E  E   
--------------------------|--------------------------|
--------------------------|--------------------------|
--------------------------|--------------------------|
--------------------------|--------------------------|
--5--5--5--5--5--5--5--5--|--5--5--5--5--5--5--5--5--|
--3--3--3--3--3--3--3--3--|--3--3--3--3--3--3--3--3--|


  PM PM PM PM PM PM PM PM    PM PM PM PM PM PM PM PM  
  E  E  E  E  E  E  E  E     E  E  E  E  E  E  E  E   
--------------------------|--------------------------|
--------------------------|--------------------------|
--------------------------|--------------------------|
--------------------------|--9--9--9--9--9--9--9--9--|
--5--5--5--5--5--5--5--5--|--7--7--7--7--7--7--7--7--|
--3--3--3--3--3--3--3--3--|--------------------------|


  PM PM PM PM PM PM PM PM    PM PM PM PM PM PM PM PM  
  E  E  E  E  E  E  E  E     E  E  E  E  E  E  E  E   
--------------------------|--------------------------|
--------------------------|--------------------------|
--------------------------|--------------------------|
--9--9--9--9--9--9--9--9--|--5--5--5--5--5--5--5--5--|
--7--7--7--7--7--7--7--7--|--3--3--3--3--3--3--3--3--|
--------------------------|--------------------------|


  PM PM >  >  >  >  >        PM PM PM PM PM PM PM PM  
  E  E  E  E  E  E  E  E     E  E  E  E  E  E  E  E   
--------------------------|--------------------------|
--------------------------|--------------------------|
--------------------------|--------------------------|
--5--5--5--5--5--7--7--9--|--L-----9-----9-----9-----|
--3--3--3--3--3--5--5--7--|--L--7--7--7--7--7--7--7--|
--------------------------|--------------------------|


  PM PM PM PM PM PM PM          PM PM PM PM PM PM     
  E  E  E  E  E  E  E  E     E  E  E  E  E  E  E  E   
--------------------------|--------------------------|
--------------------------|--------------------------|
--------------------------|--------------------------|
--9-----9-----9-----9--5--|--L-----5-----5-----5--7--|
--7--7--7--7--7--7--7--3--|--L--3--3--3--3--3--3--5--|
--------------------------|--------------------------|


     PM PM PM PM PM PM PM    PM PM PM PM PM PM PM PM  
  E  E  E  E  E  E  E  E     E  E  E  E  E  E  E  E   
--------------------------|--------------------------|
--------------------------|--------------------------|
--------------------------|--------------------------|
--L-----7-----7-----7--7--|--9-----9-----9-----9-----|
--L--5--5--5--5--5--5--5--|--7--7--7--7--7--7--7--7--|
--------------------------|--------------------------|


  PM PM PM PM PM PM PM PM     >  PM PM PM PM PM        
  E  E  E  E  E  E  E  E      E  E  E  E  E  E  E  E   
---------------------------|--------------------------|
---------------------------|--------------------------|
---------------------------|--------------------------|
--9-----9-----9-----9--9s--|--5--5--5--5--5--5--5--5--|
--7--7--7--7--7--7--7--7s--|--3--3--3--3--3--3--3--3--|
---------------------------|--------------------------|


              >  >  >  >                                                   
  E  E  E  E  E  E  E  E     Q    Q    E  E  E  E     Q.     Q    Q    E   
--------------------------|--3----3----------------|--2------3----2----0--|
--------------------------|--3----3----------------|--3------3----3----1--|
--------------------------|--0----0----0--0--0--0--|--2------0----2----0--|
--4--4--4--4--4--4--4--4--|--0----0----0--0--0--0--|--0------0----0----2--|
--2--2--2--2--2--2--2--2--|------------------------|-------------------0--|
--------------------------|--3----3----3--3--3--3--|--2------3----2-------|


  Q.     E  Q.     E     Q.     Q    Q    E     Q    Q    E  E  E  E   
--0------0--0------0--|--2------3----2----3--|--3----3----------------|
--1------1--1------1--|--3------3----3----3--|--3----3----------------|
--0------0--0------0--|--2------0----2----0--|--0----0----0--0--0--0--|
--2------2--2------2--|--0------0----0----0--|--0----0----0--0--0--0--|
--0------0--0------0--|--------------0-------|------------------------|
----------------------|--2------3---------3--|--3----3----3--3--3--3--|


  Q.     Q    Q    E     Q.     E  E  E  E  E     E  E  E  E  E  E  E  E   
--2------3----2----0--|--0------0--0--0--0--0--|--------------------------|
--3------3----3----1--|--1------1--1--1--1--1--|--3--3--3--3--3--3--3-----|
--2------0----2----0--|--0------0--0--0--0--0--|--2--2--2--2--2--2--2--x--|
--0------0----0----2--|--2------2--2--2--2--2--|--0--0--0--0--0--0--0--x--|
-------------------0--|--0------0--0--0--0--0--|-----------------------x--|
--2------3----2-------|------------------------|--------------------------|


  Q    Q    E  E  E  E     Q.     Q    Q    E     Q.     E  Q.     E   
--3----3----------------|--2------3----2----0--|--0------0--0------0--|
--3----3----------------|--3------3----3----1--|--1------1--1------1--|
--0----0----0--0--0--0--|--2------0----2----0--|--0------0--0------0--|
--0----0----0--0--0--0--|--0------0----0----2--|--2------2--2------2--|
------------------------|-------------------0--|--0------0--0------0--|
--3----3----3--3--3--3--|--2------3----2-------|----------------------|


  Q.     Q    Q    E     Q    Q    E  E  E  E     Q.     Q    Q    E   
--2------3----2----3--|--3----3----------------|--2------3----2----0--|
--3------3----3----3--|--3----3----------------|--3------3----3----1--|
--2------0----2----0--|--0----0----0--0--0--0--|--2------0----2----0--|
--0------0----0----0--|--0----0----0--0--0--0--|--0------0----0----2--|
--------------0-------|------------------------|-------------------0--|
--2------3---------3--|--3----3----3--3--3--3--|--2------3----2-------|


                                                    PM PM PM PM PM PM PM PM  
  Q.     E  Q.     E     E  E  E  E  E  E  E  E     E  E  E  E  E  E  E  E   
--0------0--0------0--|--------------------------|--------------------------|
--1------1--1------1--|--3--3--3--3--3--3--3-----|--------------------------|
--0------0--0------0--|--2--2--2--2--2--2--2--x--|--------------------------|
--2------2--2------2--|--0--0--0--0--0--0--0--x--|--------------------------|
--0------0--0------0--|-----------------------x--|--5--5--5--5--5--5--5--5--|
----------------------|--------------------------|--3--3--3--3--3--3--3--3--|


  PM PM PM PM PM PM PM PM                             
  E  E  E  E  E  E  E  E     E  E  E  E  E  E  E  E   
--------------------------|--------------------------|
--------------------------|--------------------------|
--------------------------|--------------------------|
--------------------------|--------------------------|
--5--5--5--5--5--5--5--5--|--2--2--2--2--2--2--2--2--|
--3--3--3--3--3--3--3--3--|--0--0--0--0--0--0--0--0--|


                             PM PM PM PM PM PM PM PM  
  E  E  E  E  E  E  E  E     E  E  E  E  E  E  E  E   
--------------------------|--------------------------|
--------------------------|--------------------------|
--------------------------|--------------------------|
--5--5--5--5--5--5--5--5--|--------------------------|
--3--3--3--3--3--3--3--3--|--5--5--5--5--5--5--5--5--|
--------------------------|--3--3--3--3--3--3--3--3--|


  PM PM PM PM PM PM PM PM                             
  E  E  E  E  E  E  E  E     E  E  E  E  E  E  E  E   
--------------------------|--------------------------|
--------------------------|--------------------------|
--------------------------|--------------------------|
--------------------------|--------------------------|
--5--5--5--5--5--5--5--5--|--2--2--2--2--2--2--2--2--|
--3--3--3--3--3--3--3--3--|--0--0--0--0--0--0--0--0--|


                                                 ^                 
  E  E  E  E  E  E  E  E     W                   W                 
--------------------------|--0----------------|--0----------------|
--------------------------|--1----------------|--1----------------|
--------------------------|--2----------------|--2----------------|
--5--5--5--5--5--5--5--5--|--2----------------|--2----------------|
--3--3--3--3--3--3--3--3--|--0----------------|--0----------------|
--------------------------|-------------------|-------------------|


                      ^                                     
  W                   W                   W                 
--2----------------|--2----------------|--0----------------|
--3----------------|--3----------------|--1----------------|
--2----------------|--2----------------|--2----------------|
--0----------------|--0----------------|--2----------------|
-------------------|-------------------|--0----------------|
-------------------|-------------------|-------------------|


  PM PM                                               
  E  E  E  E  E  E  E  E     E  E  E  E  E  E  E  E   
--------------------------|--------------------------|
--------------------------|--------------------------|
--------------------------|--5--5--5--5--5--5--5--5--|
--2--2--2--2--2--5-----5--|--5--5--5--5--5--5--5--5--|
--0--0--0--0--0--2-----3--|--3--3--3--3--3--3--3--3--|
--------------------------|--------------------------|


  E  E  E  E  E  E  E  E     Q    Q    E  E  E  E     Q.     Q    Q    E   
--------------------------|--3----3----------------|--2------3----2----0--|
--------------------------|--3----3----------------|--3------3----3----1--|
--7--7--7--7--7--7--7--7--|--0----0----0--0--0--0--|--2------0----2----0--|
--7--7--7--7--7--7--7--7--|--0----0----0--0--0--0--|--0------0----0----2--|
--5--5--5--5--5--5--5--5--|------------------------|-------------------0--|
--------------------------|--3----3----3--3--3--3--|--2------3----2-------|


  Q.     E  Q.     E     Q.     Q    Q    E     Q    Q    E  E  E  E   
--0------0--0------0--|--2------3----2----3--|--3----3----------------|
--1------1--1------1--|--3------3----3----3--|--3----3----------------|
--0------0--0------0--|--2------0----2----0--|--0----0----0--0--0--0--|
--2------2--2------2--|--0------0----0----0--|--0----0----0--0--0--0--|
--0------0--0------0--|--------------0-------|------------------------|
----------------------|--2------3---------3--|--3----3----3--3--3--3--|


  Q.     Q    Q    E     Q.     E  E  E  E  E     E  E  E  E  E  E  E  E   
--2------3----2----0--|--0------0--0--0--0--0--|--------------------------|
--3------3----3----1--|--1------1--1--1--1--1--|--3--3--3--3--3--3--3-----|
--2------0----2----0--|--0------0--0--0--0--0--|--2--2--2--2--2--2--2--x--|
--0------0----0----2--|--2------2--2--2--2--2--|--0--0--0--0--0--0--0--x--|
-------------------0--|--0------0--0--0--0--0--|-----------------------x--|
--2------3----2-------|------------------------|--------------------------|


  Q    Q    E  E  E  E     Q.     Q    Q    E     Q.     E  Q.     E   
--3----3----------------|--2------3----2----0--|--0------0--0------0--|
--3----3----------------|--3------3----3----1--|--1------1--1------1--|
--0----0----0--0--0--0--|--2------0----2----0--|--0------0--0------0--|
--0----0----0--0--0--0--|--0------0----0----2--|--2------2--2------2--|
------------------------|-------------------0--|--0------0--0------0--|
--3----3----3--3--3--3--|--2------3----2-------|----------------------|


  Q.     Q    Q    E     Q    Q    E  E  E  E     Q.     Q    Q    E   
--2------3----2----3--|--3----3----------------|--2------3----2----0--|
--3------3----3----3--|--3----3----------------|--3------3----3----1--|
--2------0----2----0--|--0----0----0--0--0--0--|--2------0----2----0--|
--0------0----0----0--|--0----0----0--0--0--0--|--0------0----0----2--|
--------------0-------|------------------------|-------------------0--|
--2------3---------3--|--3----3----3--3--3--3--|--2------3----2-------|


                                                      PM PM PM PM PM PM PM PM 

 
  Q.     E  E  E  E  E     E  E  E  E  E  E  E  E     E  E  E  E  E  E  E  E  

 
--0------0--0--0--0--0--|--------------------------|-------------------------

-|
--1------1--1--1--1--1--|--3--3--3--3--3--3--3-----|-------------------------

-|
--0------0--0--0--0--0--|--2--2--2--2--2--2--2--x--|-------------------------

-|
--2------2--2--2--2--2--|--0--0--0--0--0--0--0--x--|-------------------------

-|
--0------0--0--0--0--0--|-----------------------x--|--5--5--5--5--5--5--5--5-

-|
------------------------|--------------------------|--3--3--3--3--3--3--3--3-

-|


  PM PM PM PM PM PM PM PM                             
  E  E  E  E  E  E  E  E     E  E  E  E  E  E  E  E   
--------------------------|--------------------------|
--------------------------|--------------------------|
--------------------------|--------------------------|
--------------------------|--------------------------|
--5--5--5--5--5--5--5--5--|--2--2--2--2--2--2--2--2--|
--3--3--3--3--3--3--3--3--|--0--0--0--0--0--0--0--0--|


                             PM PM PM PM PM PM PM PM  
  E  E  E  E  E  E  E  E     E  E  E  E  E  E  E  E   
--------------------------|--------------------------|
--------------------------|--------------------------|
--------------------------|--------------------------|
--5--5--5--5--5--5--5--5--|--------------------------|
--3--3--3--3--3--3--3--3--|--5--5--5--5--5--5--5--5--|
--------------------------|--3--3--3--3--3--3--3--3--|


  PM PM PM PM PM PM PM PM                             
  E  E  E  E  E  E  E  E     E  E  E  E  E  E  E  E   
--------------------------|--------------------------|
--------------------------|--------------------------|
--------------------------|--------------------------|
--------------------------|--------------------------|
--5--5--5--5--5--5--5--5--|--2--2--2--2--2--2--2--2--|
--3--3--3--3--3--3--3--3--|--0--0--0--0--0--0--0--0--|


  E  E  E  E  E  E  E  E     E  E  E  E  E  E  E  E   
--------------------------|--------------------------|
--------------------------|--------------------------|
--------------------------|--------------------------|
--5--5--5--5--5--5--5--5--|--------------------------|
--3--3--3--3--3--3--3--3--|--5--5--5--5--5--5--5--5--|
--------------------------|--3--3--3--3--3--3--3--3--|


  E  E  E  E  E  E  E  E     E  E  E  E  E  E  E  E   
--------------------------|--------------------------|
--------------------------|--------------------------|
--------------------------|--------------------------|
--------------------------|--------------------------|
--5--5--5--5--5--5--5--5--|--2--2--2--2--2--2--2--2--|
--3--3--3--3--3--3--3--3--|--0--0--0--0--0--0--0--0--|


  E  E  E  E  E  E  E  E     E  E  E  E  E  E  E  E   
--------------------------|--------------------------|
--------------------------|--------------------------|
--------------------------|--------------------------|
--5--5--5--5--5--5--5--5--|--------------------------|
--3--3--3--3--3--3--3--3--|--5--5--5--5--5--5--5--5--|
--------------------------|--3--3--3--3--3--3--3--3--|


  E  E  E  E  E  E  E  E     E  E  E  E  E  E  E  E   
--------------------------|--------------------------|
--------------------------|--------------------------|
--------------------------|--------------------------|
--------------------------|--------------------------|
--5--5--5--5--5--5--5--5--|--2--2--2--2--2--2--2--2--|
--3--3--3--3--3--3--3--3--|--0--0--0--0--0--0--0--0--|


  E  E  E  E  E  E  E  E     E  E  E  E  E  E  E  E   
--------------------------|--------------------------|
--------------------------|--------------------------|
--------------------------|--------------------------|
--5--5--5--5--5--5--5--5--|--------------------------|
--3--3--3--3--3--3--3--3--|--5--5--5--5--5--5--5--5--|
--------------------------|--3--3--3--3--3--3--3--3--|


  E  E  E  E  E  E  E  E     E  E  E  E  E  E  E  E   
--------------------------|--------------------------|
--------------------------|--------------------------|
--------------------------|--------------------------|
--------------------------|--------------------------|
--5--5--5--5--5--5--5--5--|--2--2--2--2--2--2--2--2--|
--3--3--3--3--3--3--3--3--|--0--0--0--0--0--0--0--0--|


  E  E  E  E  E  E  E  E    
--------------------------||
--------------------------||
--------------------------||
--5--5--5--5--5--5--5--5--||
--3--3--3--3--3--3--3--3--||
--------------------------||




Duration Legend
---------------
W - whole
H - half
Q - quarter
E - 8th
S - 16th
T - 32nd
X - 64th
. - note dotted
|-n-|  - n-tuplets


Tablature Legend
----------------
L - tied note
x - dead note
g - grace note
(n) - ghost note
> - accentuded note
NH - natural harmonic
AH - artificial harmonic
TH - tapped harmonic
SH - semi harmonic
PH - pitch harmonic
h - hammer on
p - pull off
b - bend
br - bendRelease
pb - preBend
pbr - preBendRelease
brb - bendReleaseBend
\n/ - tremolo bar dip
\n - tremolo bar dive
-/n - tremolo bar Release up
/n\ - tremolo bar inverted dip
/n - tremolo bar return
-\n - tremolo bar Release down
S - shift slide
s - legato slide
/ -  slide into from below or out of upwards
\ -  slide into from above or out of downwards
~ - vibrato
W - wide vibrato
tr - trill
TP - tremolo picking
T - tapping
S - slap
P - pop
< - fade in
^ - brush up
v - brush down
comments
We did not receive enough feedback on this tab! Please rate:
print report bad tab
1 2 3 4 5
I want to post or [tab]
guest
You may want to rate the tab now too:
select rating
Please do not post tabs as comments. Select "correction" instead!