Oops, an error
Loading. Please wait.

Long Distance Affair Tab

74 views 1 this week
no commentswrite comment
1 2 3 4 5
please rate
Autoscroll
+/-
esc
set tempo
stop
Contributor
Difficulty
intermediate
WARNING: You are trying to view
                                    content from Ultimate-Guitar.com
                                    in an unauthorized application,
                                    which is prohibited.

                                    Please use an official Ultimate
                                    Guitar Tabs application for iPhone,
                                    iPad or Android to access legitimate
                                    chords, guitar, bass, and drum tabs
                                    from Ultimate-Guitar.com database.

                                    Type "ultimate guitar tabs" in Apple
                                    App Store's or Android Market's
                                    search to find the application.
-----------------------------------------------------------------------------
                                  
             Long Distance Affair - 38 Special (GUITAR)
            
-----------------------------------------------------------------------------

Tabbed by: Scotto10

Tuning: standard tuning

=============================================================================
                                                           
                                                                     
Guitar 1



                                      PM PM PM PM    PM PM PM PM PM PM PM PM  
                             H        E  E  E  E     E  E  E  E  E  E  E  E   
E||-------|-------|-------|-----------------------|--------------------------|
B||-------|-------|-------|-----------------------|--------------------------|
G||-------|-------|-------|-----------------------|--------------------------|
D||-------|-------|-------|-----------2-----------|--------------------------|
A||-------|-------|-------|-----------0--------2--|--2--2--2--2--2--2--2--4--|
E||-------|-------|-------|--------------3--2--0--|--0--0--0--0--0--0--0--2--|


  PM PM PM PM PM PM PM PM    PM PM PM PM PM PM PM PM  
  E  E  E  E  E  E  E  E     E  E  E  E  E  E  E  E   
--------------------------|--------------------------|
--------------------------|--------------------------|
--------------------------|--------------------------|
-----------------------7--|--7--7--7--7--7--7--7--2--|
--4--4--4--4--4--4--4--5--|--5--5--5--5--5--5--5--0--|
--2--2--2--2--2--2--2-----|--------------------------|


  PM PM PM PM PM PM PM PM    PM PM PM PM PM PM PM PM  
  E  E  E  E  E  E  E  E     E  E  E  E  E  E  E  E   
--------------------------|--------------------------|
--------------------------|--------------------------|
--------------------------|--------------------------|
--2--2--2--2--2-----------|--------------------------|
--0--0--0--0--0--------2--|--2--2--2--2--2--2--2--4--|
-----------------3--2--0--|--0--0--0--0--0--0--0--2--|


  PM PM PM PM PM PM PM PM    PM PM PM PM PM PM PM PM  
  E  E  E  E  E  E  E  E     E  E  E  E  E  E  E  E   
--------------------------|--------------------------|
--------------------------|--------------------------|
--------------------------|--------------------------|
-----------------------7--|--7--7--7--7--7--7--7--2--|
--4--4--4--4--4--4--4--5--|--5--5--5--5--5--5--5--0--|
--2--2--2--2--2--2--2-----|--------------------------|


  PM PM PM PM PM PM PM PM    PM PM PM PM PM PM PM PM  
  E  E  E  E  E  E  E  E     E  E  E  E  E  E  E  E   
--------------------------|--------------------------|
--------------------------|--------------------------|
--------------------------|--------------------------|
--2--2--2--2--2-----------|--------------------------|
--0--0--0--0--0--------2--|--2--2--2--2--2--2--2--4--|
-----------------3--2--0--|--0--0--0--0--0--0--0--2--|


  PM PM PM PM PM PM PM PM    PM PM PM PM PM PM PM PM  
  E  E  E  E  E  E  E  E     E  E  E  E  E  E  E  E   
--------------------------|--------------------------|
--------------------------|--------------------------|
--------------------------|--------------------------|
-----------------------7--|--7--7--7--7--7--7--7--2--|
--4--4--4--4--4--4--4--5--|--5--5--5--5--5--5--5--0--|
--2--2--2--2--2--2--2-----|--------------------------|


  PM PM PM PM PM PM PM PM    PM PM PM PM PM PM PM PM  
  E  E  E  E  E  E  E  E     E  E  E  E  E  E  E  E   
--------------------------|--------------------------|
--------------------------|--------------------------|
--------------------------|--------------------------|
--2--2--2--2--2-----------|--------------------------|
--0--0--0--0--0--------2--|--2--2--2--2--2--2--2--4--|
-----------------3--2--0--|--0--0--0--0--0--0--0--2--|


  PM PM PM PM PM PM PM PM    PM PM PM PM PM PM PM PM  
  E  E  E  E  E  E  E  E     E  E  E  E  E  E  E  E   
--------------------------|--------------------------|
--------------------------|--------------------------|
--------------------------|--------------------------|
--------------------------|-----------------------2--|
--4--4--4--4--4--4--4--5--|--5--5--5--5--5--5--5--0--|
--2--2--2--2--2--2--2--3--|--3--3--3--3--3--3--3-----|


  E  E  E  E  E  E  E  E     E  E  E  E  E  E  E  E   
--------------------------|--------------------------|
--------------------------|--------------------------|
--------------------------|--------------------------|
--2--2--2--2--2--4-----6--|--L--6--6--6--6--6--6--2--|
--0--0--0--0--0--2-----4--|--L--4--4--4--4--4--4--0--|
--------------------------|--------------------------|


  E  E  E  E  E  E  E  E     E  E  E  E  E  E  Q       Q    E  E  E  E  Q     
--------------------------|-------------------------|------------------------|
--------------------------|-------------------------|------------------------|
--------------------------|-------------------------|------------------------|
--L--2--2--2--2--4-----6--|--L--6--6--6--6--6--6----|------------------------|
--L--0--0--0--0--2-----4--|--L--4--4--4--4--4--4----|--4----4--4--4--4--4----|
--------------------------|-------------------------|--2----2--2--2--2--2----|


  Q    E  E  Q    Q       Q    E  Q.     Q       Q    E  E  Q     Q      
-----------------------|----------------------|-------------------------|
-----------------------|----------------------|-------------------------|
--4----x--4--4----4----|--2----x--------------|--4----x--4--4-----------|
--4----x--4--4----4----|--2----x--2------2----|--4----x--4--4-----------|
--2----x--2--2----2----|--0-------2------2----|--2----x--2--2-----------|
-----------------------|----------0------0----|------------------10\----|


  E  E  E  E  E  E  Q       Q    E  E  Q    Q       Q    E  Q.     Q     
-------------------------|-----------------------|----------------------|
-------------------------|-----------------------|----------------------|
-------------------------|--4----x--4--4----4----|--2----x--------------|
-------------------------|--4----x--4--4----4----|--2----x--2------2----|
-------------------------|--2----x--2--2----2----|--0-------2------2----|
-----5--5--4--5--4--0----|-----------------------|----------0------0----|


  E  E  E  E  E  E  E  E     E  E  E  E  E  E  E  E   
--------------------------|--------------------------|
--------------------------|--------------------------|
--------------------------|--------------------------|
--------------------------|--------------------------|
--4--4--4--4--4--4--4--4--|--4--4--4--4--4--4--4--4--|
--2--2--2--2--2--2--2--2--|--2--2--2--2--2--2--2--2--|


  PM PM PM PM PM PM PM PM                             
  E  E  E  E  E  E  E  E     E  E  E  E  E  E  E  E   
--------------------------|--------------------------|
--------------------------|--------------------------|
--------------------------|--------------------------|
--6--6--6--6--6--6--6--2--|--2--2--2--2--2--2--2-----|
--4--4--4--4--4--4--4--0--|--0--0--0--0--0--0--0--2--|
--------------------------|-----------------------0--|


  E  E  E  E  E  E  E  E     E  E  E  E  E  E  Q       H        H         
--------------------------|-------------------------|--------------------|
--------------------------|-------------------------|--------------------|
--------------------------|-------------------------|--9--------9--------|
-----------------------2--|--2--2--2--2--2--2--2----|--9--------9--------|
--2--2--2--2--2--2--2--0--|--0--0--0--0--0--0--0----|--7--------7--------|
--0--0--0--0--0--0--0-----|-------------------------|--------------------|


  Q.     E  H           H.           E  E     W                 
---------------------|---------------------|-------------------|
---------2--L--------|---------------------|-------------------|
--7------2--L--------|--9------------------|-------------------|
--7------2--L--------|--9---------------2--|--L----------------|
--5------4--L--------|--7---------------0--|--L----------------|
---------------------|---------------------|-------------------|


                                                   PM PM PM PM PM PM PM PM  
  H.           E  E     E  E  E  E  E  E  E  E     E  E  E  E  E  E  E  E   
---------------------|--------------------------|--------------------------|
---------------------|--------------------------|--------------------------|
--9------------------|--------------------------|--------------------------|
--9---------------2--|--L--2--2--2--2-----------|--------------------------|
--7---------------0--|--L--0--0--0--0--------2--|--2--2--2--2--2--2--2--4--|
---------------------|-----------------3--2--0--|--0--0--0--0--0--0--0--2--|


  PM PM PM PM PM PM PM PM    PM PM PM PM PM PM PM PM  
  E  E  E  E  E  E  E  E     E  E  E  E  E  E  E  E   
--------------------------|--------------------------|
--------------------------|--------------------------|
--------------------------|--------------------------|
-----------------------7--|--7--7--7--7--7--7--7--2--|
--4--4--4--4--4--4--4--5--|--5--5--5--5--5--5--5--0--|
--2--2--2--2--2--2--2-----|--------------------------|


  PM PM PM PM PM PM PM PM    PM PM PM PM PM PM PM PM  
  E  E  E  E  E  E  E  E     E  E  E  E  E  E  E  E   
--------------------------|--------------------------|
--------------------------|--------------------------|
--------------------------|--------------------------|
--2--2--2--2--2-----------|--------------------------|
--0--0--0--0--0--------2--|--2--2--2--2--2--2--2--4--|
-----------------3--2--0--|--0--0--0--0--0--0--0--2--|


  PM PM PM PM PM PM PM PM    PM PM PM PM PM PM PM PM  
  E  E  E  E  E  E  E  E     E  E  E  E  E  E  E  E   
--------------------------|--------------------------|
--------------------------|--------------------------|
--------------------------|--------------------------|
--------------------------|-----------------------2--|
--4--4--4--4--4--4--4--5--|--5--5--5--5--5--5--5--0--|
--2--2--2--2--2--2--2--3--|--3--3--3--3--3--3--3-----|


  E  E  E  E  E  E  E  E     E  E  E  E  E  E  E  E   
--------------------------|--------------------------|
--------------------------|--------------------------|
--------------------------|--------------------------|
--2--2--2--2--2--4-----6--|--L--6--6--6--6--6--6--2--|
--0--0--0--0--0--2-----4--|--L--4--4--4--4--4--4--0--|
--------------------------|--------------------------|


  E  E  E  E  E  E  E  E     E  E  E  E  E  E  Q       Q    E  E  E  E  Q     
--------------------------|-------------------------|------------------------|
--------------------------|-------------------------|------------------------|
--------------------------|-------------------------|------------------------|
--L--2--2--2--2--4-----6--|--L--6--6--6--6--6--6----|------------------------|
--L--0--0--0--0--2-----4--|--L--4--4--4--4--4--4----|--4----4--4--4--4--4----|
--------------------------|-------------------------|--2----2--2--2--2--2----|


  Q    E  E  Q    Q       Q    E  Q.     Q       Q    E  E  Q     Q      
-----------------------|----------------------|-------------------------|
-----------------------|----------------------|-------------------------|
--4----x--4--4----4----|--2----x--------------|--4----x--4--4-----------|
--4----x--4--4----4----|--2----x--2------2----|--4----x--4--4-----------|
--2----x--2--2----2----|--0-------2------2----|--2----x--2--2-----------|
-----------------------|----------0------0----|------------------10\----|


  E  E  E  E  E  E  Q       Q    E  E  Q    Q       Q    E  Q.     Q     
-------------------------|-----------------------|----------------------|
-------------------------|-----------------------|----------------------|
-------------------------|--4----x--4--4----4----|--2----x--------------|
-------------------------|--4----x--4--4----4----|--2----x--2------2----|
-------------------------|--2----x--2--2----2----|--0-------2------2----|
-----5--5--4--5--4--0----|-----------------------|----------0------0----|


  E  E  E  E  E  E  E  E     E  E  E  E  E  E  E  E   
--------------------------|--------------------------|
--------------------------|--------------------------|
--------------------------|--------------------------|
--------------------------|--------------------------|
--4--4--4--4--4--4--4--4--|--4--4--4--4--4--4--4--4--|
--2--2--2--2--2--2--2--2--|--2--2--2--2--2--2--2--2--|


  E  E  E  E  E  E  E  E     E  E  E  E  E  Q    E     Q    H        E  E   
--4-----4-----4-----4-----|--2-----2-----2----------|-------0--------------|
--5-----5-----5-----5-----|--2-----2-----2----------|-------0--------------|
--6-----6-----6-----6-----|--2-----2-----2----------|-------1--------------|
--6-----6-----6-----6-----|--4-----4-----4-------2--|--L----------------2--|
--------------------------|----------------------2--|--L----------------0--|
--------------------------|----------------------0--|--L-------------------|


  Q    H        Q       E  E  E  E  E  E  E  E     E  E  E  E  E  Q    E   
-------0-------------|--4-----4-----4-----4-----|--2-----2-----2----------|
-------2-------------|--5-----5-----5-----5-----|--2-----2-----2----------|
-------2-------------|--6-----6-----6-----6-----|--2-----2-----2----------|
--L------------------|--6-----6-----6-----6-----|--4-----4-----4-------2--|
--L------------------|--------------------------|----------------------0--|
---------------------|--------------------------|-------------------------|


  H.           E  E     Q    Q    E  E  Q       E  E  E  E  E  E  E  E   
---------------------|-----------------------|--4-----4-----4-----4-----|
---------------------|-----------------------|--5-----5-----5-----5-----|
---------------------|-----------------------|--6-----6-----6-----6-----|
--L---------------4--|--L----4----4--4--4----|--6-----6-----6-----6-----|
--L---------------2--|--L----2----2--2--2----|--------------------------|
---------------------|-----------------------|--------------------------|


  E  E  E  E  E  E  E  E     Q    H        E  E     E  E  E  E  E  E  Q     
--2-----2-----2--2--2--4--|--L----4--------------|-------------------------|
--3-----3-----2--2--2--5--|--L----5--------------|-------------------------|
--2-----2-----2--2--2--4--|--L----4--------------|-------------------------|
--4-----4-----4--4--4--6--|--L----6-----------2--|--L--2--2--2--2--2--2----|
--------------------------|-------------------0--|--L--0--0--0--0--0--0----|
--------------------------|----------------------|-------------------------|


  E  E  E  E  E  E  E  E     E  E  E  E  E  E  E  E     W                 
--------------------------|--------------------------|-------------------|
--------------------------|--------------------------|-------------------|
--------------------------|--------------------------|-------------------|
--------------------------|-----------------------2--|--L----------------|
--4--4--4--4--4--4--4--4--|--4--4--4--4--4--------0--|--L----------------|
--2--2--2--2--2--2--2--2--|--2--2--2--2--2--3--4-----|-------------------|


  E  E  E  E     E  E  E  E  E  E  E  E     E  E  E  E  E  Q.                  
--------------|--------------------------|------------------------|-----|-----|
--------------|--------------------------|------------------------|-----|-----|
--------------|--------------------------|------------------------|-----|-----|
--2--2-----4--|--4--4--4--4--4--4--4--4--|--4--4--4--4--4---------|-----|-----|
--0--0-----2--|--2--2--2--2--2--2--2--2--|--2--2--2--2--2---------|-----|-----|
--------------|--------------------------|------------------------|-----|-----|


        H        E   Q     E     Q    E  E  E  E  E  E   
-----|------------------------|-------------------------|
-----|------------------------|-------------------------|
-----|------------------------|----------------------4--|
-----|------------------------|----------------4-----4--|
-----|--------------12\----2--|--L----4--5--6-----6-----|
-----|------------------------|-------------------------|


  E  E  E  E  E  E  E  E      E  E  E  E  E  E  E  E   
--------------------------|------5-----5--------------|
--------------------------|------5-----5--------------|
--4-----4-----4-----------|--/6-----7-----7--6-----6--|
--4--4--6--4--4--------x--|---------------------------|
-----------------5--6--x--|---------------------------|
--------------------------|---------------------------|


  E  E  E  E  E  E  Q       E  E  E  E  E  E  E  E     E  E  E  E  E  E  E  E   
-----5-----5-------------|--7-----------7--------7--|--7-----------7-----------|
-----5-----5-------------|--------7-----------7-----|--------7-----------7-----|
--L-----7-----7--6-------|--------------------------|--------------------------|
-------------------------|-----9-----9-----9--------|-----9-----9-----9-----7--|
-------------------------|--------------------------|--------------------------|
-------------------------|--------------------------|--------------------------|


  S  S S  S E  S  S S  S E  E  E     E  E  E  E  E    E    E  E   
--5p-4---------5p-4---------5--3--|--3--3--3--3--3--3g4--3g4-----|
-------7p-5---------7p-5-------2--|--2--2--2--2--4------------5--|
------------6------------6--------|------------------------------|
----------------------------------|------------------------------|
----------------------------------|------------------------------|
----------------------------------|------------------------------|


  Q     E  H         E     E   S S E   E  Q     E  E   
---------------------7--|--------------------------9--|
--L\-------7b-----------|--7b--7-5-7b-----------------|
------------------------|--------------4--L\----------|
------------------------|-----------------------------|
------------------------|-----------------------------|
------------------------|-----------------------------|


  E   E   E  E   E    E  E   E       E     E   E    E   H          
--9----------------------9-------|--------10-------10-------------|
-----12--10--9--10s--12-----13b--|---Lpb------13b-----------------|
---------------------------------|--------------------------------|
---------------------------------|--------------------------------|
---------------------------------|---------------------12\--------|
---------------------------------|--------------------------------|


  W                   W                   E  E  Q    E  E  Q     
-------------------|-------------------|------------------------|
-------------------|-------------------|------------------------|
-------------------|-------------------|-----9-------9--9-------|
--9----------------|--L----------------|------------------------|
--7----------------|--L----------------|------------------------|
-------------------|-------------------|------------------------|


  E  E  Q    E  E  Q       E  E  Q    E  E  Q       E  E  Q    E  E  Q     
------------------------|------------------------|------------------------|
------------------------|------------------------|------------------------|
-----9-------9--9-------|-----9-------9--9-------|-----9-------9--9-------|
------------------------|------------------------|------------------------|
------------------------|------------------------|------------------------|
------------------------|------------------------|------------------------|


  E  E  Q    E  E  E  E     E  E  Q    E  E  E  E     E  E  Q    E  E  E  E   
-------------------------|-------------------------|-------------------------|
-------------------------|-------------------------|-------------------------|
-----9-------9--9-----9--|-----9-------9--9-----9--|-----9-------9--9-----9--|
-------------------------|-------------------------|-------------------------|
-------------------------|-------------------------|-------------------------|
-------------------------|-------------------------|-------------------------|


  E  E  Q    E  E  E  E                       W                 
-------------------------|-----|-----|-----|-------------------|
-------------------------|-----|-----|-----|--5----------------|
-----9-------9--9-----9--|-----|-----|-----|--3----------------|
-------------------------|-----|-----|-----|--2----------------|
-------------------------|-----|-----|-----|--4----------------|
-------------------------|-----|-----|-----|--2----------------|


  Q    E  E  Q    Q       Q    E  Q.     Q       Q    E  E  Q     Q      
-----------------------|----------------------|-------------------------|
-----------------------|----------------------|-------------------------|
--4----x--4--4----4----|--2----x--------------|--4----x--4--4-----------|
--4----x--4--4----4----|--2----x--2------2----|--4----x--4--4-----------|
--2----x--2--2----2----|--0-------2------2----|--2----x--2--2-----------|
-----------------------|----------0------0----|------------------10\----|


  E  E  E  E  E  E  Q       Q    E  E  Q    Q       Q    E  Q.     Q     
-------------------------|-----------------------|----------------------|
-------------------------|-----------------------|----------------------|
-------------------------|--4----x--4--4----4----|--2----x--------------|
-------------------------|--4----x--4--4----4----|--2----x--2------2----|
-------------------------|--2----x--2--2----2----|--0-------2------2----|
-----5--5--4--5--4--0----|-----------------------|----------0------0----|


  H.           Q       E  E  Q    Q    E  E     Q.     E  H         
--------------------|------------------------|---------------------|
--4------------4----|-----2--2----2----------|--4------4--4--------|
--4------------4----|-----2--2----2----1--1--|--4------4--4--------|
--4------------4----|-----2--2----2----2--2--|--4------4--4--------|
--2------------2----|-----0--0----0----2--2--|--2------2--2--------|
--2------------2----|------------------------|--2------2--2--------|


  Q.     E  Q    Q       Q.     E  H           E  E  E  E  E  E  Q     
----------------------|---------------------|-------------------------|
--2-------------------|--4------4--4--------|-----2--2----------------|
--2------1--L----1----|--4------4--4--------|-----2--2--1--1--1--1----|
--2------2--L----2----|--4------4--4--------|-----2--2--2--2--2--2----|
--0------2--L----2----|--2------2--2--------|-----0--0--2--2--2--2----|
----------------------|--2------2--2--------|-------------------------|


  Q.     E  H           Q.     E  Q    Q       Q.     E  H         
---------------------|----------------------|---------------------|
---------------------|--2-------------------|---------------------|
--4------4--4--------|--2------1--L----1----|--4------4--4--------|
--4------4--4--------|--2------2--L----2----|--4------4--4--------|
--2------2--2--------|--0------2--L----2----|--2------2--2--------|
---------------------|----------------------|---------------------|


  E  E  E  E  E  E  Q       E  E  E  E  E  E  E  E     E  E  E  E  E  Q.      
-------------------------|--------------------------|------------------------|
-----2--2----------------|--------------------------|------------------------|
-----2--2--1--1--1--1----|--------------------------|------------------------|
-----2--2--2--2--2--2----|--4--4--4--4--4--4--4--4--|--4--4--4--2------------|
-----0--0--2--2--2--2----|--2--2--2--2--2--2--2--2--|--2--2--2--0-----2------|
-------------------------|--------------------------|-----------------0------|


  E  E  E  E  E  E  Q       E  E  E  E  E  E  Q       E  E  E  E  E  E  E  E   
-------------------------|-------------------------|--------------------------|
-------------------------|-----2--2----------------|--------------------------|
-------------------------|-----2--2--1--1--1--1----|--------------------------|
--4--4--4--4--4--4--4----|-----2--2--2--2--2--2----|--4--4--4--4--4--4--4--4--|
--2--2--2--2--2--2--2----|-----0--0--2--2--2--2----|--2--2--2--2--2--2--2--2--|
-------------------------|-------------------------|--------------------------|


  E  E  E  E  E  Q.        E  E  E  E  E  E  Q       E  E  E  E  E  E  Q     
------------------------|-------------------------|-------------------------|
------------------------|-------------------------|-----2--2----------------|
------------------------|-------------------------|-----2--2--1--1--1--1----|
--4--4--4--2------------|--4--4--4--4--4--4--4----|-----2--2--2--2--2--2----|
--2--2--2--0-----2------|--2--2--2--2--2--2--2----|-----0--0--2--2--2--2----|
-----------------0------|-------------------------|-------------------------|


  E  E  E  E  E  E  E  E     E  E  E  E  E  Q.        E  E  E  E  E  E  Q     
--------------------------|------------------------|-------------------------|
--------------------------|------------------------|-------------------------|
--------------------------|------------------------|-------------------------|
--4--4--4--4--4--4--4--4--|--4--4--4--2------------|--4--4--4--4--4--4--4----|
--2--2--2--2--2--2--2--2--|--2--2--2--0-----2------|--2--2--2--2--2--2--2----|
--------------------------|-----------------0------|-------------------------|


  E  E  E  E  E  E  Q      
-------------------------||
-----2--2----------------||
-----2--2--1--1--1--1----||
-----2--2--2--2--2--2----||
-----0--0--2--2--2--2----||
-------------------------||




=============================================================================
=============================================================================


Guitar 2



             PM PM PM PM PM PM PM PM    PM PM PM PM PM PM PM PM  
             E  E  E  E  E  E  E  E     E  E  E  E  E  E  E  E   
E||-------|--------------------------|--------------------------|
B||-------|--------------------------|--------------------------|
G||-------|--------------------------|--------------------------|
D||-------|--------------------------|--------------------------|
A||-------|--0--0--0--0--0--0--0--0--|--0--0--0--0--0--0--0--0--|
E||-------|--------------------------|--------------------------|


  PM PM PM PM PM PM PM PM    PM PM PM PM PM PM PM PM  
  E  E  E  E  E  E  E  E     E  E  E  E  E  E  E  E   
--------------------------|--------------------------|
--------------------------|--------------------------|
--------------------------|--------------------------|
--------------------------|--------------------------|
--0--0--0--0--0--0--0--0--|--0--0--0--0--0--0--0--0--|
--------------------------|--------------------------|


  PM PM PM PM PM PM PM PM    PM PM PM PM PM PM PM PM  
  E  E  E  E  E  E  E  E     E  E  E  E  E  E  E  E   
--------------------------|--------------------------|
--------------------------|--------------------------|
--------------------------|--------------------------|
--------------------------|--------------------------|
--0--0--0--0--0--0--0--0--|--0--0--0--0--0--0--0--0--|
--------------------------|--------------------------|


  PM PM PM PM PM PM PM PM    PM PM PM PM PM PM PM PM  
  E  E  E  E  E  E  E  E     E  E  E  E  E  E  E  E   
--------------------------|--------------------------|
--------------------------|--------------------------|
--------------------------|--------------------------|
--------------------------|--------------------------|
--0--0--0--0--0--0--0--0--|--0--0--0--0--0--0--0--0--|
--------------------------|--------------------------|


  PM PM PM PM PM PM PM PM    PM PM PM PM PM PM PM PM  
  E  E  E  E  E  E  E  E     E  E  E  E  E  E  E  E   
--------------------------|--------------------------|
--------------------------|--------------------------|
--------------------------|--------------------------|
--------------------------|--------------------------|
--0--0--0--0--0--0--0--0--|--0--0--0--0--0--0--0--0--|
--------------------------|--------------------------|


  PM PM PM PM PM PM PM PM    PM PM PM PM PM PM PM PM  
  E  E  E  E  E  E  E  E     E  E  E  E  E  E  E  E   
--------------------------|--------------------------|
--------------------------|--------------------------|
--------------------------|--------------------------|
--------------------------|--------------------------|
--0--0--0--0--0--0--0--0--|--0--0--0--0--0--0--0--0--|
--------------------------|--------------------------|


  PM PM PM PM PM PM PM PM    PM PM PM PM PM PM PM PM  
  E  E  E  E  E  E  E  E     E  E  E  E  E  E  E  E   
--------------------------|--------------------------|
--------------------------|--------------------------|
--------------------------|--------------------------|
--------------------------|--------------------------|
--0--0--0--0--0--0--0--0--|--0--0--0--0--0--0--0--0--|
--------------------------|--------------------------|


  PM PM PM PM PM PM PM PM    PM PM PM PM PM           
  E  E  E  E  E  E  E  E     E  E  E  E  E  E  E  E   
--------------------------|--------------------------|
--------------------------|--------------------------|
--------------------------|--------------------------|
--------------------------|--------------------------|
--0--0--0--0--0--0--0--0--|--0--0--0--0--0-----------|
--------------------------|-----------------0--0--0--|


   Q    E   Q     Q     E      Q    E   Q     E  E   E    
---------------------------|-----------------------------|
--15-------14-----L\-------|--15-------14----14----------|
--14-------14-----L\-------|--14-------14----14-----14~--|
--16-------14-----L\-------|--16-------14----14-----14~--|
---------------------------|-----------------------------|
---------------------------|-----------------------------|


   Q     Q    H           Q    E  Q    E  E  E      Q    E   Q     Q     E   
-----------------------|------------------------|---------------------------|
-----------------------|--8-------8----8--8-----|--15-------14-----L\-------|
---L\------------------|--7-------7----7--7-----|--14-------14-----L\-------|
---L\------------------|--5-------5----5--5-----|--16-------14-----L\-------|
-----------------------|------------------------|---------------------------|
-----------------------|------------------------|---------------------------|


   Q    E   Q     E  E   E       Q     Q    H           W                 
-----------------------------|-----------------------|-------------------|
--15-------14----14----------|-----------------------|-------------------|
--14-------14----14-----14~--|---L\------------------|-------------------|
--16-------14----14-----14~--|---L\------------------|--0----------------|
-----------------------------|-----------------------|-------------------|
-----------------------------|-----------------------|-------------------|


   E   E   E   E   E   E   E   E      E   E   H.            
----------10----------10----------|------------------------|
------10----------10------10------|------------------------|
--12----------12--------------12--|--12--12--11------------|
--12----------12------------------|--12--12--12------------|
----------------------------------|------------------------|
----------------------------------|------------------------|


                        PM PM PM PM PM PM PM PM    PM PM PM PM PM PM PM PM  
  E  E  H.              E  E  E  E  E  E  E  E     E  E  E  E  E  E  E  E   
---------------------|--------------------------|--------------------------|
---------------------|--------------------------|--------------------------|
---------------------|--------------------------|--------------------------|
--7------------------|--------------------------|--------------------------|
--5------------------|--0--0--0--0--0--0--0--0--|--0--0--0--0--0--0--0--0--|
---------------------|--------------------------|--------------------------|


  PM PM PM PM PM PM PM PM    PM PM PM PM PM PM PM PM  
  E  E  E  E  E  E  E  E     E  E  E  E  E  E  E  E   
--------------------------|--------------------------|
--------------------------|--------------------------|
--------------------------|--------------------------|
--------------------------|--------------------------|
--0--0--0--0--0--0--0--0--|--0--0--0--0--0--0--0--0--|
--------------------------|--------------------------|


  PM PM PM PM PM PM PM PM    PM PM PM PM PM PM PM PM  
  E  E  E  E  E  E  E  E     E  E  E  E  E  E  E  E   
--------------------------|--------------------------|
--------------------------|--------------------------|
--------------------------|--------------------------|
--------------------------|--------------------------|
--0--0--0--0--0--0--0--0--|--0--0--0--0--0--0--0--0--|
--------------------------|--------------------------|


  PM PM PM PM PM PM PM PM    PM PM PM PM PM PM PM PM  
  E  E  E  E  E  E  E  E     E  E  E  E  E  E  E  E   
--------------------------|--------------------------|
--------------------------|--------------------------|
--------------------------|--------------------------|
--------------------------|--------------------------|
--0--0--0--0--0--0--0--0--|--0--0--0--0--0--0--0--0--|
--------------------------|--------------------------|


  PM PM PM PM PM PM PM PM    PM PM PM PM PM PM PM PM  
  E  E  E  E  E  E  E  E     E  E  E  E  E  E  E  E   
--------------------------|--------------------------|
--------------------------|--------------------------|
--------------------------|--------------------------|
--------------------------|--------------------------|
--0--0--0--0--0--0--0--0--|--0--0--0--0--0--0--0--0--|
--------------------------|--------------------------|


  PM PM PM PM PM PM PM PM    PM PM PM PM PM PM PM PM  
  E  E  E  E  E  E  E  E     E  E  E  E  E  E  E  E   
--------------------------|--------------------------|
--------------------------|--------------------------|
--------------------------|--------------------------|
--------------------------|--------------------------|
--0--0--0--0--0--0--0--0--|--0--0--0--0--0--0--0--0--|
--------------------------|--------------------------|


  PM PM PM PM PM PM PM PM    PM PM PM PM PM PM PM PM  
  E  E  E  E  E  E  E  E     E  E  E  E  E  E  E  E   
--------------------------|--------------------------|
--------------------------|--------------------------|
--------------------------|--------------------------|
--------------------------|--------------------------|
--0--0--0--0--0--0--0--0--|--0--0--0--0--0--0--0--0--|
--------------------------|--------------------------|


  PM PM PM PM PM PM PM PM    PM PM PM PM PM           
  E  E  E  E  E  E  E  E     E  E  E  E  E  E  E  E   
--------------------------|--------------------------|
--------------------------|--------------------------|
--------------------------|--------------------------|
--------------------------|--------------------------|
--0--0--0--0--0--0--0--0--|--0--0--0--0--0-----------|
--------------------------|-----------------0--0--0--|


   Q    E   Q     Q     E      Q    E   Q     E  E   E    
---------------------------|-----------------------------|
--15-------14-----L\-------|--15-------14----14----------|
--14-------14-----L\-------|--14-------14----14-----14~--|
--16-------14-----L\-------|--16-------14----14-----14~--|
---------------------------|-----------------------------|
---------------------------|-----------------------------|


   Q     Q    H           Q    E  Q    E  E  E      Q    E   Q     Q     E   
-----------------------|------------------------|---------------------------|
-----------------------|--8-------8----8--8-----|--15-------14-----L\-------|
---L\------------------|--7-------7----7--7-----|--14-------14-----L\-------|
---L\------------------|--5-------5----5--5-----|--16-------14-----L\-------|
-----------------------|------------------------|---------------------------|
-----------------------|------------------------|---------------------------|


   Q    E   Q     E  E   E       Q     Q    H           W                 
-----------------------------|-----------------------|-------------------|
--15-------14----14----------|-----------------------|-------------------|
--14-------14----14-----14~--|---L\------------------|-------------------|
--16-------14----14-----14~--|---L\------------------|--0----------------|
-----------------------------|-----------------------|-------------------|
-----------------------------|-----------------------|-------------------|


   E   E   E   E   E   E   E   E      E   E   H.              E  E  H         
----------10----------10----------|------------------------|-----------------|
------10----------10------10------|------------------------|-----------------|
--12----------12--------------12--|--12--12--11------------|-----------------|
--12----------12------------------|--12--12--12------------|--7--------------|
----------------------------------|------------------------|--5--------------|
----------------------------------|------------------------|-----------------|


  PM PM PM PM PM PM PM PM    PM PM PM PM PM PM PM PM  
  E  E  E  E  E  E  E  E     E  E  E  E  E  E  E  E   
--------------------------|--------------------------|
--------------------------|--------------------------|
--------------------------|--------------------------|
--------------------------|--------------------------|
--0--0--0--0--0--0--0--0--|--0--0--0--0--0--0--0--0--|
--------------------------|--------------------------|


  PM PM PM PM PM PM PM PM    PM PM PM PM PM PM PM PM  
  E  E  E  E  E  E  E  E     E  E  E  E  E  E  E  E   
--------------------------|--------------------------|
--------------------------|--------------------------|
--------------------------|--------------------------|
--------------------------|--------------------------|
--0--0--0--0--0--0--0--0--|--0--0--0--0--0--0--0--0--|
--------------------------|--------------------------|


  PM PM PM PM PM PM PM PM    PM PM PM PM PM PM PM PM  
  E  E  E  E  E  E  E  E     E  E  E  E  E  E  E  E   
--------------------------|--------------------------|
--------------------------|--------------------------|
--------------------------|--------------------------|
--------------------------|--------------------------|
--0--0--0--0--0--0--0--0--|--0--0--0--0--0--0--0--0--|
--------------------------|--------------------------|


  PM PM PM PM PM PM PM PM    PM PM PM PM PM PM PM PM                          
  E  E  E  E  E  E  E  E     E  E  E  E  E  E  E  E                           
--------------------------|--------------------------|-----|-----|-----|-----|
--------------------------|--------------------------|-----|-----|-----|-----|
--------------------------|--------------------------|-----|-----|-----|-----|
--------------------------|--------------------------|-----|-----|-----|-----|
--0--0--0--0--0--0--0--0--|--0--0--0--0--0--0--0--0--|-----|-----|-----|-----|
--------------------------|--------------------------|-----|-----|-----|-----|


-----|-----|-----|-----|-----|-----|-----|-----|-----|-----|
-----|-----|-----|-----|-----|-----|-----|-----|-----|-----|
-----|-----|-----|-----|-----|-----|-----|-----|-----|-----|
-----|-----|-----|-----|-----|-----|-----|-----|-----|-----|
-----|-----|-----|-----|-----|-----|-----|-----|-----|-----|
-----|-----|-----|-----|-----|-----|-----|-----|-----|-----|


  PM PM PM PM PM PM PM PM    PM PM PM PM PM PM PM PM  
  E  E  E  E  E  E  E  E     E  E  E  E  E  E  E  E   
--------------------------|--------------------------|
--------------------------|--------------------------|
--------------------------|--------------------------|
--------------------------|--------------------------|
--0--0--0--0--0--0--0--0--|--0--0--0--0--0--0--0--0--|
--------------------------|--------------------------|


  PM PM PM PM PM PM PM PM    PM PM PM PM PM PM PM PM  
  E  E  E  E  E  E  E  E     E  E  E  E  E  E  E  E   
--------------------------|--------------------------|
--------------------------|--------------------------|
--------------------------|--------------------------|
--------------------------|--------------------------|
--0--0--0--0--0--0--0--0--|--0--0--0--0--0--0--0--0--|
--------------------------|--------------------------|


  PM PM PM PM PM PM PM PM    PM PM PM PM PM PM PM PM  
  E  E  E  E  E  E  E  E     E  E  E  E  E  E  E  E   
--------------------------|--------------------------|
--------------------------|--------------------------|
--------------------------|--------------------------|
--------------------------|--------------------------|
--0--0--0--0--0--0--0--0--|--0--0--0--0--0--0--0--0--|
--------------------------|--------------------------|


  PM PM PM PM PM PM PM PM    PM PM PM PM PM PM PM PM  
  E  E  E  E  E  E  E  E     E  E  E  E  E  E  E  E   
--------------------------|--------------------------|
--------------------------|--------------------------|
--------------------------|--------------------------|
--------------------------|--------------------------|
--0--0--0--0--0--0--0--0--|--0--0--0--0--0--0--0--0--|
--------------------------|--------------------------|


  PM PM PM PM PM PM PM PM    PM PM PM PM PM PM PM PM  
  E  E  E  E  E  E  E  E     E  E  E  E  E  E  E  E   
--------------------------|--------------------------|
--------------------------|--------------------------|
--------------------------|--------------------------|
--------------------------|--------------------------|
--0--0--0--0--0--0--0--0--|--0--0--0--0--0--0--0--0--|
--------------------------|--------------------------|


  PM PM PM PM PM PM PM PM    PM PM PM PM PM PM PM PM  
  E  E  E  E  E  E  E  E     E  E  E  E  E  E  E  E   
--------------------------|--------------------------|
--------------------------|--------------------------|
--------------------------|--------------------------|
--------------------------|--------------------------|
--0--0--0--0--0--0--0--0--|--0--0--0--0--0--0--0--0--|
--------------------------|--------------------------|


  PM PM PM PM PM PM PM PM    PM PM PM PM PM PM PM PM  
  E  E  E  E  E  E  E  E     E  E  E  E  E  E  E  E   
--------------------------|--------------------------|
--------------------------|--------------------------|
--------------------------|--------------------------|
--------------------------|--------------------------|
--0--0--0--0--0--0--0--0--|--0--0--0--0--0--0--0--0--|
--------------------------|--------------------------|


  PM PM PM PM PM PM PM PM    PM PM PM PM PM           
  E  E  E  E  E  E  E  E     E  E  E  E  E  E  E  E   
--------------------------|--------------------------|
--------------------------|--------------------------|
--------------------------|--------------------------|
--------------------------|--------------------------|
--0--0--0--0--0--0--0--0--|--0--0--0--0--0-----------|
--------------------------|-----------------0--0--0--|


   Q    E   Q     Q     E      Q    E   Q     E  E   E    
---------------------------|-----------------------------|
--15-------14-----L\-------|--15-------14----14----------|
--14-------14-----L\-------|--14-------14----14-----14~--|
--16-------14-----L\-------|--16-------14----14-----14~--|
---------------------------|-----------------------------|
---------------------------|-----------------------------|


   Q     Q    H           Q    E  Q    E  E  E      Q    E   Q     Q     E   
-----------------------|------------------------|---------------------------|
-----------------------|--8-------8----8--8-----|--15-------14-----L\-------|
---L\------------------|--7-------7----7--7-----|--14-------14-----L\-------|
---L\------------------|--5-------5----5--5-----|--16-------14-----L\-------|
-----------------------|------------------------|---------------------------|
-----------------------|------------------------|---------------------------|


   Q    E   Q     E  E   E       Q     Q    H           W                 
-----------------------------|-----------------------|-------------------|
--15-------14----14----------|-----------------------|-------------------|
--14-------14----14-----14~--|---L\------------------|-------------------|
--16-------14----14-----14~--|---L\------------------|--0----------------|
-----------------------------|-----------------------|-------------------|
-----------------------------|-----------------------|-------------------|


   E   E   E   E   E   E   E   E      Q    E   Q     Q     E   
----------10----------10----------|---------------------------|
------10----------10------10------|--15-------14-----L\-------|
--12----------12--------------12--|--14-------14-----L\-------|
--12----------12------------------|--16-------14-----L\-------|
----------------------------------|---------------------------|
----------------------------------|---------------------------|


   Q    E   Q     E  E   E       Q     Q    H           Q    E  Q    E  E  E   
-----------------------------|-----------------------|------------------------|
--15-------14----14----------|-----------------------|--8-------8----8--8-----|
--14-------14----14-----14~--|---L\------------------|--7-------7----7--7-----|
--16-------14----14-----14~--|---L\------------------|--5-------5----5--5-----|
-----------------------------|-----------------------|------------------------|
-----------------------------|-----------------------|------------------------|


   Q    E   Q     Q     E      Q    E   Q     E  E   E    
---------------------------|-----------------------------|
--15-------14-----L\-------|--15-------14----14----------|
--14-------14-----L\-------|--14-------14----14-----14~--|
--16-------14-----L\-------|--16-------14----14-----14~--|
---------------------------|-----------------------------|
---------------------------|-----------------------------|


   Q     Q    H           W                    Q    E   Q     Q     E   
-----------------------|-------------------|---------------------------|
-----------------------|-------------------|--15-------14-----L\-------|
---L\------------------|-------------------|--14-------14-----L\-------|
---L\------------------|--0----------------|--16-------14-----L\-------|
-----------------------|-------------------|---------------------------|
-----------------------|-------------------|---------------------------|


   Q    E   Q     E  E   E       Q     Q    H           Q    E  Q    E  E  E   
-----------------------------|-----------------------|------------------------|
--15-------14----14----------|-----------------------|--8-------8----8--8-----|
--14-------14----14-----14~--|---L\------------------|--7-------7----7--7-----|
--16-------14----14-----14~--|---L\------------------|--5-------5----5--5-----|
-----------------------------|-----------------------|------------------------|
-----------------------------|-----------------------|------------------------|


   Q    E   Q     Q     E      Q    E   Q     E  E   E    
---------------------------|-----------------------------|
--15-------14-----L\-------|--15-------14----14----------|
--14-------14-----L\-------|--14-------14----14-----14~--|
--16-------14-----L\-------|--16-------14----14-----14~--|
---------------------------|-----------------------------|
---------------------------|-----------------------------|


   Q     Q    H           W                    E   E   E   E   E   E   E   E   
-----------------------|-------------------|----------10----------10----------|
-----------------------|-------------------|------10----------10------10------|
---L\------------------|-------------------|--12----------12--------------12--|
---L\------------------|--0----------------|--12----------12------------------|
-----------------------|-------------------|----------------------------------|
-----------------------|-------------------|----------------------------------|


   Q    E   Q     Q     E      Q    E   Q     E  E   E    
---------------------------|-----------------------------|
--15-------14-----L\-------|--15-------14----14----------|
--14-------14-----L\-------|--14-------14----14-----14~--|
--16-------14-----L\-------|--16-------14----14-----14~--|
---------------------------|-----------------------------|
---------------------------|-----------------------------|


   Q     Q    H           Q    E  Q    E  E  E      Q    E   Q     Q     E   
-----------------------|------------------------|---------------------------|
-----------------------|--8-------8----8--8-----|--15-------14-----L\-------|
---L\------------------|--7-------7----7--7-----|--14-------14-----L\-------|
---L\------------------|--5-------5----5--5-----|--16-------14-----L\-------|
-----------------------|------------------------|---------------------------|
-----------------------|------------------------|---------------------------|


   Q    E   Q     E  E   E       Q     Q    H          
-----------------------------|-----------------------||
--15-------14----14----------|-----------------------||
--14-------14----14-----14~--|---L\------------------||
--16-------14----14-----14~--|---L\------------------||
-----------------------------|-----------------------||
-----------------------------|-----------------------||




Duration Legend
---------------
W - whole
H - half
Q - quarter
E - 8th
S - 16th
T - 32nd
X - 64th
. - note dotted
|-n-|  - n-tuplets


Tablature Legend
----------------
L - tied note
x - dead note
g - grace note
(n) - ghost note
> - accentuded note
NH - natural harmonic
AH - artificial harmonic
TH - tapped harmonic
SH - semi harmonic
PH - pitch harmonic
h - hammer on
p - pull off
b - bend
br - bendRelease
pb - preBend
pbr - preBendRelease
brb - bendReleaseBend
\n/ - tremolo bar dip
\n - tremolo bar dive
-/n - tremolo bar Release up
/n\ - tremolo bar inverted dip
/n - tremolo bar return
-\n - tremolo bar Release down
S - shift slide
s - legato slide
/ -  slide into from below or out of upwards
\ -  slide into from above or out of downwards
~ - vibrato
W - wide vibrato
tr - trill
TP - tremolo picking
T - tapping
S - slap
P - pop
< - fade in
^ - brush up
v - brush down
comments
We did not receive enough feedback on this tab! Please rate:
print report bad tab
1 2 3 4 5
I want to post or [tab]
guest
You may want to rate the tab now too:
select rating
Please do not post tabs as comments. Select "correction" instead!