Oops, an error
Loading. Please wait.

One Time For Old Times Tab

ver1
ver1

Whole song

Interactive

More versions @911Tabs.com
259 views 1 this week
no commentswrite comment
1 2 3 4 5
please rate
Autoscroll
+/-
esc
set tempo
stop
Contributor
Difficulty
novice
Hey! There's an official Ultimate Guitar app which is ideal
for learning songs when you're away from computer. Get the app
WARNING: You are trying to view
                                    content from Ultimate-Guitar.com
                                    in an unauthorized application,
                                    which is prohibited.

                                    Please use an official Ultimate
                                    Guitar Tabs application for iPhone,
                                    iPad or Android to access legitimate
                                    chords, guitar, bass, and drum tabs
                                    from Ultimate-Guitar.com database.

                                    Type "ultimate guitar tabs" in Apple
                                    App Store's or Android Market's
                                    search to find the application.
-----------------------------------------------------------------------------
                  
                One Time for Old Times - 38 Special (GUITAR)
            
-----------------------------------------------------------------------------
Tabbed by: Scotto10

Tuning: Standard

=============================================================================

Guitar 1



     Q     Q    Q    E  E     E  E  E  E  E  E  E  E     Q     Q    Q    E  E   
E||------------------------|--------------------------|------------------------|
B||------------------------|--------------------------|------------------------|
G||-------/9----7----------|--------------------------|-------/9----7-------7--|
D||------------------9--7--|--L--5-----------------5--|--L---------------9-----|
A||------------------------|--------7-----7--5--7-----|------------------------|
E||------------------------|--------------------------|------------------------|


  Q    E  Q    E  E  E     Q     Q    Q    E  E     E  Q    Q    E  E  E   
------------------------|------------------------|------------------------|
-------7----------------|------------------------|------------------------|
--9-------9----7-----7--|--L----/9----7----------|------------------------|
------------------9-----|------------------9--7--|--L--5----5-------------|
------------------------|------------------------|---------------7--5--7--|
------------------------|------------------------|------------------------|


  Q    E  E  H           E  Q    E  H           E  E  E  E  Q    E  E   
----------3-----------|--3-------3-----------|-------------------------|
----------3-----------|--3-------3-----------|-----------3--5----------|
----------------------|----------------------|--------4-------------4--|
--5-------------------|----------------------|-----5-------------5-----|
----------------------|----------------------|-------------------------|
----------------------|----------------------|-------------------------|


  E  E  E  E  Q    Q       E  E  E  E  Q    E  E     E  E  E  E  E  E  Q     
------------------------|----------------------3--|--L--3--2----------------|
-----3--3-----5---------|-----------3--3----------|-----------5--5--3-------|
--L--------4------------|--------4----------4-----|--------------------4----|
------------------------|-----5-------------------|-------------------------|
------------------------|-------------------------|-------------------------|
------------------------|-------------------------|-------------------------|


  Q    E  E  Q    E  E     E  E  E  E  E  E  E  E     Q    H        E  E   
---------------------3--|--L--3--2-----------------|----------------------|
----------3--3----------|-----------5--5--3--------|--3----------------3--|
-------4----------4-----|--------------------4--4--|----------------4-----|
------------------------|--------------------------|----------------------|
------------------------|--------------------------|----------------------|
------------------------|--------------------------|----------------------|


  Q    H.              E  E  E  E  Q    E  E     E  E  E  E  Q    Q     
--------------------|-------------------------|------------------------|
--3-----------------|-----------3--5----------|-----3--3-----5---------|
--------------------|--------4-------------4--|--L--------4------------|
--------------------|-----5-------------5-----|------------------------|
--------------------|-------------------------|------------------------|
--------------------|-------------------------|------------------------|


  E  E  E  E  Q    E  E     E  E  E  E  E  E  Q       E  Q    Q.     Q     
----------------------3--|--L--3--2----------------|--3-------2------3----|
-----------3--3----3-----|-----------5--5--3-------|--5-------4------3----|
--------4----------------|--------------------4----|----------------------|
-----5-------------------|-------------------------|----------------------|
-------------------------|-------------------------|----------------------|
-------------------------|-------------------------|----------------------|


  E  Q    Q.     Q       E  Q    Q.     Q       E  E  H.            
----------------------|--3-------2------3----|---------------------|
--5-------5------7----|--5-------4------3----|--5-----5------------|
--5-------5------7----|----------------------|--5-----5------------|
----------------------|----------------------|---------------------|
----------------------|----------------------|---------------------|
----------------------|----------------------|---------------------|


  E  Q.     E  E  S  S E     Q      Q    Q    Q       E  E  E  E  E  E  Q     
------------5--3--6p-5-3--|--3\----/5----3---------|-------------------------|
--5---------5--3----------|--------/5----3---------|-----5-----x--5--5-------|
--5-----------------------|------------------------|-----4-----x--4--4-------|
--------------------------|------------------------|-------------------------|
--------------------------|------------------------|-------------------------|
--------------------------|------------------------|-------------------------|


  Q     Q    Q    Q       E  E  E  E  E  E  Q       Q     Q    Q    Q     
-------/5----3---------|-------------------------|-------/5----3---------|
-------/5----3---------|-----5-----x--5--5-------|-------/5----3---------|
-----------------------|-----4-----x--4--4-------|-----------------------|
-----------------------|-------------------------|-----------------------|
-----------------------|-------------------------|-----------------------|
-----------------------|-------------------------|-----------------------|


  E  E  E  E  E  E  Q       E  Q    E  H           E  Q    E  H         
-------------------------|----------------------|----------------------|
-----5-----x--5--5-------|----------------------|----------------------|
-----4-----x--4--4-------|--5-------5-----------|--7-------7-----------|
-------------------------|--5-------5-----------|--7-------7-----------|
-------------------------|----------------------|----------------------|
-------------------------|----------------------|----------------------|


  E  Q    E  E  E  Q       E  Q    E  E  E  Q       E  E  E  E  Q    E  E   
--3-------3--3--3-------|--3-------3--3--3-------|-------------------------|
--3-------3--3--3-------|--3-------3--3--3-------|-----------3--5----------|
------------------------|------------------------|--------4-------------4--|
------------------------|------------------------|-----5-------------5-----|
------------------------|------------------------|-------------------------|
------------------------|------------------------|-------------------------|


  E  E  E  E  Q    Q       E  E  E  E  Q    E  E     E  E  Q    E  E  Q     
------------------------|----------------------3--|--L--3--2---------------|
-----3--3-----5---------|-----------3--3----------|-------------5--3-------|
--L--------4------------|--------4----------4-----|-------------------4----|
------------------------|-----5-------------------|------------------------|
------------------------|-------------------------|------------------------|
------------------------|-------------------------|------------------------|


  Q    E  E  Q    E  E     Q    E  E  E  E  E  E     Q    Q.     E  E  E   
---------------------3--|--L----2-----------------|-----------------------|
----------3--3----------|----------5--5--3--3-----|--3-----------------3--|
-------4----------4-----|----------------------4--|--------------2--4-----|
------------------------|-------------------------|-----------------------|
------------------------|-------------------------|-----------------------|
------------------------|-------------------------|-----------------------|


  Q    H.              E  Q    Q.     Q       E  Q    Q.     Q     
--------------------|--3-------2------3----|----------------------|
--L-----------------|--5-------4------3----|--5-------5------7----|
--------------------|----------------------|--5-------5------7----|
--------------------|----------------------|----------------------|
--------------------|----------------------|----------------------|
--------------------|----------------------|----------------------|


  E  Q    Q.     Q       E  E  H.              E  Q.     E  E  S  S E   
--3-------2------3----|---------------------|------------5--3--6p-5-3--|
--5-------4------3----|--5-----5------------|--5---------5--3----------|
----------------------|--5-----5------------|--5-----------------------|
----------------------|---------------------|--------------------------|
----------------------|---------------------|--------------------------|
----------------------|---------------------|--------------------------|


  Q      Q    Q    Q       E  E  E  E  E  E  Q       Q     Q    Q    Q     
--3\----/5----3---------|-------------------------|-------/5----3---------|
--------/5----3---------|-----5-----x--5--5-------|-------/5----3---------|
------------------------|-----4-----x--4--4-------|-----------------------|
------------------------|-------------------------|-----------------------|
------------------------|-------------------------|-----------------------|
------------------------|-------------------------|-----------------------|


  E  E  E  E  E  E  Q       Q     Q    Q    Q       E  E  E  E  E  E  Q     
-------------------------|-------/5----3---------|-------------------------|
-----5-----x--5--5-------|-------/5----3---------|-----5-----x--5--5-------|
-----4-----x--4--4-------|-----------------------|-----4-----x--4--4-------|
-------------------------|-----------------------|-------------------------|
-------------------------|-----------------------|-------------------------|
-------------------------|-----------------------|-------------------------|


  E  Q    E  H           E  Q    E  H           Q     Q    Q    Q     
----------------------|----------------------|-------/5----3---------|
----------------------|----------------------|-------/5----3---------|
--5-------5-----------|--7-------7-----------|-----------------------|
--5-------5-----------|--7-------7-----------|-----------------------|
----------------------|----------------------|-----------------------|
----------------------|----------------------|-----------------------|


  E  E  E  E  E  E  Q       Q     Q    Q    Q       E  E  E  E  E  E  Q     
-------------------------|-------/5----3---------|-------------------------|
-----5-----x--5--5-------|-------/5----3---------|-----5-----x--5--5-------|
-----4-----x--4--4-------|-----------------------|-----4-----x--4--4-------|
-------------------------|-----------------------|-------------------------|
-------------------------|-----------------------|-------------------------|
-------------------------|-----------------------|-------------------------|


  Q     Q    Q    Q       E  E  E  E  E  E  Q       E  Q    E  H         
-------/5----3---------|-------------------------|----------------------|
-------/5----3---------|-----5-----x--5--5-------|----------------------|
-----------------------|-----4-----x--4--4-------|--5-------5-----------|
-----------------------|-------------------------|--5-------5-----------|
-----------------------|-------------------------|----------------------|
-----------------------|-------------------------|----------------------|


  E  Q    E  H           E  Q    E  E  E  Q       E  Q    E  E  E  Q     
----------------------|--3-------3--3--3-------|--3-------3--3--3-------|
----------------------|--3-------3--3--3-------|--3-------3--3--3-------|
--7-------7-----------|------------------------|------------------------|
--7-------7-----------|------------------------|------------------------|
----------------------|------------------------|------------------------|
----------------------|------------------------|------------------------|


  Q.     Q.     Q       Q.     Q.     Q       Q.     Q.     Q     
---------------------|---------------------|---------------------|
---------7------8----|----------------7----|---------7------8----|
--9------------------|--9------9-----------|--9------------------|
---------------------|---------------------|---------------------|
---------------------|---------------------|---------------------|
---------------------|---------------------|---------------------|


  Q.     Q.     Q       Q.     Q.     Q       Q.     Q.      Q     
---------------------|---------------------|----------------------|
----------------7----|---------7------8----|----------------------|
--9------9-----------|--9------------------|--9------9\-----------|
---------------------|---------------------|----------------------|
---------------------|---------------------|----------------------|
---------------------|---------------------|----------------------|


  Q.     E  Q.     E     E  E  S  S E  S  S E  E  E     H        E  E  E  E   
----------------------|------------------------------|-----------------------|
----------------------|------------------------------|--8--------8--7--------|
----------------------|-------------7-------7--9--7--|-----------------9--7--|
-------------------5--|--5--5--7h-9----7h-9----------|-----------------------|
--3------5--7---------|------------------------------|-----------------------|
----------------------|------------------------------|-----------------------|


                                        |-3-|        
  H.           E   E      Q    E  E  E  S S S E  E   
----------------------|-----------------------------|
--8------------8--10--|--10----8--7--8--7-8-7-------|
----------------------|-----------------------9--7--|
----------------------|-----------------------------|
----------------------|-----------------------------|
----------------------|-----------------------------|


  E  E  E   E  E  S  S E  E      Q    E  S  S Q    S  S  S S  
-----------------------------|-------------------------------|
-----------------------------|-------------------------------|
--9--7---------7-------------|-------------------------------|
--------7s--9-----9s-7-5-----|--/7----5--7s-9-L----7h-9p-7-5-|
--------------------------7--|-------------------------------|
-----------------------------|-------------------------------|


  E  E  E  Q    E  E  E     Q    S  S S S H         
-------------------------|-------------------------|
-------------------------|-------8p-7---7-8--------|
-------------------------|------------9------------|
--7--5--4--5----4--------|-------------------------|
-------------------7--5--|--3----------------------|
-------------------------|-------------------------|


  S  S S S  S S S S S  S S S S S  S S     W                 
--------------------7--------8-7------|--10----------------|
--8p-7-----10-8-7-----10-8-7-----10-8-|--------------------|
-------9-7--------9-------------------|--------------------|
--------------------------------------|--------------------|
--------------------------------------|--------------------|
--------------------------------------|--------------------|


   H        Q    E  E     W                   W                 
---L--------3----3--3--|-------------------|-------------------|
------------5----5--5--|-------------------|-------------------|
-----------------------|-------------------|-------------------|
-----------------------|-------------------|-------------------|
-----------------------|-------------------|-------------------|
-----------------------|-------------------|-------------------|


  E  Q    Q.     Q       E  Q    Q.     Q       E  Q    Q.     Q     
--3-------2------3----|----------------------|--3-------2------3----|
--5-------4------3----|--5-------5------7----|--5-------4------3----|
----------------------|--5-------5------7----|----------------------|
----------------------|----------------------|----------------------|
----------------------|----------------------|----------------------|
----------------------|----------------------|----------------------|


  E  Q    H        E     E  Q    E  E  E  S  S E     Q      Q    Q    Q     
----------------------|-------------5--3--6p-5-3--|--3\----/5----3---------|
--5-------5--------L--|--5-------5--5--3----------|--------/5----3---------|
--5-------5--------L--|--5-------5----------------|------------------------|
----------------------|---------------------------|------------------------|
----------------------|---------------------------|------------------------|
----------------------|---------------------------|------------------------|


  E  E  E  E  E  E  Q       Q     Q    Q    Q       E  E  E  E  E  E  Q     
-------------------------|-------/5----3---------|-------------------------|
-----5-----x--5--5-------|-------/5----3---------|-----5-----x--5--5-------|
-----4-----x--4--4-------|-----------------------|-----4-----x--4--4-------|
-------------------------|-----------------------|-------------------------|
-------------------------|-----------------------|-------------------------|
-------------------------|-----------------------|-------------------------|


  Q     Q    Q    Q       E  E  E  E  E  E  Q       E  Q    E  H         
-------/5----3---------|-------------------------|----------------------|
-------/5----3---------|-----5-----x--5--5-------|----------------------|
-----------------------|-----4-----x--4--4-------|--5-------5-----------|
-----------------------|-------------------------|--5-------5-----------|
-----------------------|-------------------------|----------------------|
-----------------------|-------------------------|----------------------|


  E  Q    E  H           Q      Q    Q    Q       E  E  E  E  E  E  Q     
----------------------|--3\----/5----3---------|-------------------------|
----------------------|--------/5----3---------|-----5-----x--5--5-------|
--7-------7-----------|------------------------|-----4-----x--4--4-------|
--7-------7-----------|------------------------|-------------------------|
----------------------|------------------------|-------------------------|
----------------------|------------------------|-------------------------|


  Q     Q    Q    Q       E  E  E  E  E  E  Q       Q     Q    Q    Q     
-------/5----3---------|-------------------------|-------/5----3---------|
-------/5----3---------|-----5-----x--5--5-------|-------/5----3---------|
-----------------------|-----4-----x--4--4-------|-----------------------|
-----------------------|-------------------------|-----------------------|
-----------------------|-------------------------|-----------------------|
-----------------------|-------------------------|-----------------------|


  E  E  E  E  E  E  Q       E  Q    E  H           E  Q    E  H         
-------------------------|----------------------|----------------------|
-----5-----x--5--5-------|----------------------|----------------------|
-----4-----x--4--4-------|--5-------5-----------|--7-------7-----------|
-------------------------|--5-------5-----------|--7-------7-----------|
-------------------------|----------------------|----------------------|
-------------------------|----------------------|----------------------|


  Q     Q    Q    E  E     E  E  Q     E  E  S S E     Q     Q    Q     E  E   
------------------------|---------------------------|-------------------------|
-------10----8----------|---------------------------|-------10----8-----------|
--------9----7----------|---------------------------|--------9----7--------7--|
------------------9--7--|--L--5--5----/9--7--9-7-5--|--5---------------/9-----|
------------------------|---------------------------|-------------------------|
------------------------|---------------------------|-------------------------|


  Q    E  E  Q       S   S E     Q     Q    Q    E  E   
------------------------------|------------------------|
-------7-----7pbr-------------|-------10----8----------|
--9-------9----------9s-11----|--------9----7----------|
---------------------------9--|--7---------------9--7--|
------------------------------|------------------------|
------------------------------|------------------------|


  E  E  Q    E  E   E  E     Q     E  E  E  E  E  E     Q     E  Q    E  E  E   
--------------------------|--------------------------|-------------------------|
--------------------------|--------------------------|-------------------------|
-----------------------5--|--5--------------------7--|--L----/9--7-------------|
--L--5--5----L---------5--|--7----/9--7--L--5-----7--|--L----/9--7----5-----5--|
----------------5h--7-----|--------------------7-----|-------------------7-----|
--------------------------|--------------------------|-------------------------|


  E  E  E   Q    E  S  S E      E  E  E  Q     Q.       
----------------------------|--------------------------|
-----------10----8----------|------8-------------------|
------------9----7----------|--------------------------|
--L-----------------9p-7-5--|--/9-----9--5----/9~------|
----------------------------|--------------------------|
----------------------------|--------------------------|


  E   E  Q    E  E   E  E     E   E  E   Q    E  E  E   
---------------------------|---------------------------|
-----10--8--------------8--|---------------------------|
------9--7-----------------|---------------------------|
--L-----------7--5--/9-----|--7b--5--7b--5----5--------|
---------------------------|---------------------7--5--|
---------------------------|---------------------------|


  Q     Q    Q    E  E     E  E  Q    E  E    E   E   
------------------------|----------------------------|
-------10----8----------|----------------------------|
--------9----7----------|------------------------12--|
------------------9--7--|--L--5--5----L-----/14------|
--L---------------------|----------------------------|
------------------------|----------------------------|


   Q     E   Q     E  E   E        E      E   E   Q       E   E   E   
-------------------------------|-------------------------------------|
--------12---------------12pb--|---Lpbr------------------------------|
--14--------14----12-----------|---------14--12--14br----12------12--|
-------------------------------|-----------------------------14------|
-------------------------------|-------------------------------------|
-------------------------------|-------------------------------------|


   E   Q      E   E   E   E   E       E   S  S  E   Q.      E   E   
---------------------------------|---------------------------------|
---------------------------------|---------------------------------|
--12--16----/16--14------14------|--/16--14----14------------------|
------17----/17--17--17--17------|--/17--17-17-----17------14--14--|
-----------------------------17--|---------------------------------|
---------------------------------|---------------------------------|


   E   E   E   E      E   E   E   E      S   S  E   E   Q.      E    E   
-------------------------------------|---------15-------------------15--|
------------------15g17--15----------|----------------------------------|
------16--14---------16------16--14--|--14s-16-----14--12-------L/------|
------17--17--17---------------------|----------------------------------|
--17---------------------------------|----------------------------------|
-------------------------------------|----------------------------------|


   E  E    Q    Q     E   E      Q     E    E   H                
---L-----/17---------17--15--|--15-----------------------|-----||
---------/17---------17--17--|---------------------------|-----||
-----------------------------|--------16s--14--12--------|-----||
-----------------------------|---------------------------|-----||
-----------------------------|---------------------------|-----||
-----------------------------|---------------------------|-----||




=============================================================================


Guitar 2



     W                   W                   W                 
E||-------------------|-------------------|-------------------|
B||--3----------------|--0----------------|--3----------------|
G||--0----------------|--0----------------|--0----------------|
D||--0----------------|--2----------------|--0----------------|
A||--2----------------|--2----------------|--2----------------|
E||--3----------------|--0----------------|--3----------------|


  W                   W                   W                 
-------------------|--3----------------|--2----------------|
--0----------------|--1----------------|--3----------------|
--0----------------|--0----------------|--2----------------|
--2----------------|--2----------------|--0----------------|
--2----------------|--3----------------|-------------------|
--0----------------|-------------------|-------------------|


  PM PM PM PM PM PM PM PM    PM PM PM PM PM PM PM PM  
  E  E  E  E  E  E  E  E     E  E  E  E  E  E  E  E   
--------------------------|--------------------------|
--------------------------|--------------------------|
--------------------------|--------------------------|
--------------------------|--------------------------|
--5--5--5--5--5--5--5--5--|--5--5--5--5--5--5--5--5--|
--3--3--3--3--3--3--3--3--|--3--3--3--3--3--3--3--3--|


  PM PM PM PM PM PM PM PM    PM PM PM PM PM PM PM PM  
  E  E  E  E  E  E  E  E     E  E  E  E  E  E  E  E   
--------------------------|--------------------------|
--------------------------|--------------------------|
--------------------------|--------------------------|
-----------------------5--|--5--5--5--5--5--5--5-----|
--5--5--5--5--5--5--5--3--|--3--3--3--3--3--3--3--5--|
--3--3--3--3--3--3--3-----|-----------------------3--|


  PM PM PM PM PM PM PM PM    PM PM PM PM PM PM PM PM  
  E  E  E  E  E  E  E  E     E  E  E  E  E  E  E  E   
--------------------------|--------------------------|
--------------------------|--------------------------|
--------------------------|--------------------------|
--------------------------|--------------------------|
--5--5--5--5--5--5--5--2--|--2--2--2--2--2--2--2--2--|
--3--3--3--3--3--3--3--0--|--0--0--0--0--0--0--0--0--|


  PM PM PM PM PM PM PM PM    PM PM PM PM PM PM PM PM  
  E  E  E  E  E  E  E  E     E  E  E  E  E  E  E  E   
--------------------------|--------------------------|
--------------------------|--------------------------|
--------------------------|--------------------------|
-----------------------5--|--5--5--5--5--5--5--5--5--|
--5--5--5--5--5--5--5--3--|--3--3--3--3--3--3--3--3--|
--3--3--3--3--3--3--3-----|--------------------------|


     PM PM    PM PM PM PM       PM PM    PM PM PM PM  
  E  E  E  E  E  E  E  E     E  E  E  E  E  E  E  E   
--------------------------|--------------------------|
--------------------------|--------------------------|
--------------------------|--------------------------|
--7--7--7--7--7--7--7--7--|--7--7--7--7--7--7--7--7--|
--5--5--5--5--5--5--5--5--|--5--5--5--5--5--5--5--5--|
--------------------------|--------------------------|


  PM PM PM PM PM PM PM PM    PM PM PM PM PM PM PM PM  
  E  E  E  E  E  E  E  E     E  E  E  E  E  E  E  E   
--------------------------|--------------------------|
--------------------------|--------------------------|
--------------------------|--------------------------|
-----------------------5--|--5--5--5--5--5--5--5--5--|
--5--5--5--5--5--5--5--3--|--3--3--3--3--3--3--3--3--|
--3--3--3--3--3--3--3-----|--------------------------|


  PM PM PM PM PM PM PM PM    PM PM PM PM PM PM                                  
  E  E  E  E  E  E  E  E     E  E  E  E  E  E  Q       E  E  E  E  E  E  E  E   
--------------------------|-------------------------|--------------------------|
--------------------------|-------------------------|--------------------------|
--------------------------|-------------------------|--------------------------|
--------------------------|-------------------------|--9--9--9--9--9--9--9--9--|
--5--5--5--5--5--5--5--2--|--2--2--2--2--2--2--2----|--7--7--7--6--6--6--5--5--|
--3--3--3--3--3--3--3--0--|--0--0--0--0--0--0--0----|--------------------------|


  E  E  E  E  E  E  E  E     E  E  E  E  E  E  E  E   
--------------------------|--------------------------|
--------------------------|--------------------------|
--------------------------|--------------------------|
--5--5--5--5--5--5--7--7--|--9--9--9--9--9--9--9--9--|
--3--3--3--3--3--3--5--5--|--7--7--7--6--6--6--5--5--|
--------------------------|--------------------------|


  E  E  E  E  E  E  E  E     E  E  E  E  E  E  E  E   
--------------------------|--------------------------|
--------------------------|--------------------------|
--------------------------|--------------------------|
--5--5--5--5--5--5--5--5--|--5--5--5--5--5--5--5--5--|
--3--3--3--3--3--3--3--3--|--3--3--3--3--3--3--3--3--|
--------------------------|--------------------------|


  PM PM PM PM PM PM PM PM    PM PM PM PM PM PM PM PM  
  E  E  E  E  E  E  E  E     E  E  E  E  E  E  E  E   
--------------------------|--------------------------|
--------------------------|--------------------------|
--------------------------|--------------------------|
--------------------------|--------------------------|
--5--5--5--5--5--5--5--2--|--2--2--2--2--2--2--2--2--|
--3--3--3--3--3--3--3--0--|--0--0--0--0--0--0--0--0--|


  PM PM PM PM PM PM PM PM    PM PM PM PM PM PM PM PM  
  E  E  E  E  E  E  E  E     E  E  E  E  E  E  E  E   
--------------------------|--------------------------|
--------------------------|--------------------------|
--------------------------|--------------------------|
--------------------------|--------------------------|
--5--5--5--5--5--5--5--2--|--2--2--2--2--2--2--2--2--|
--3--3--3--3--3--3--3--0--|--0--0--0--0--0--0--0--0--|


  PM PM PM PM PM PM PM PM    PM PM PM PM PM PM PM PM  
  E  E  E  E  E  E  E  E     E  E  E  E  E  E  E  E   
--------------------------|--------------------------|
--------------------------|--------------------------|
--------------------------|--------------------------|
-----------------------5--|--5--5--5--5--5--5--5--5--|
--5--5--5--5--5--5--5--3--|--3--3--3--3--3--3--3--3--|
--3--3--3--3--3--3--3-----|--------------------------|


  PM PM PM PM PM PM PM PM    PM PM PM PM PM PM PM PM  
  E  E  E  E  E  E  E  E     E  E  E  E  E  E  E  E   
--------------------------|--------------------------|
--------------------------|--------------------------|
--------------------------|--------------------------|
--5--5--5--5--5--5--5--5--|--7--7--7--7--7--7--7--7--|
--3--3--3--3--3--3--3--3--|--5--5--5--5--5--5--5--5--|
--------------------------|--------------------------|


  PM PM PM PM PM PM PM PM    PM PM PM PM PM PM PM PM  
  E  E  E  E  E  E  E  E     E  E  E  E  E  E  E  E   
--------------------------|--------------------------|
--------------------------|--------------------------|
--------------------------|--------------------------|
--------------------------|--------------------------|
--5--5--5--5--5--5--5--5--|--5--5--5--5--5--5--5--5--|
--3--3--3--3--3--3--3--3--|--3--3--3--3--3--3--3--3--|


  PM PM PM PM PM PM PM PM    PM PM PM PM PM PM PM PM  
  E  E  E  E  E  E  E  E     E  E  E  E  E  E  E  E   
--------------------------|--------------------------|
--------------------------|--------------------------|
--------------------------|--------------------------|
-----------------------5--|--5--5--5--5--5--5--5-----|
--5--5--5--5--5--5--5--3--|--3--3--3--3--3--3--3--5--|
--3--3--3--3--3--3--3-----|-----------------------3--|


  PM PM PM PM PM PM PM PM    PM PM PM PM PM PM PM PM  
  E  E  E  E  E  E  E  E     E  E  E  E  E  E  E  E   
--------------------------|--------------------------|
--------------------------|--------------------------|
--------------------------|--------------------------|
--------------------------|--------------------------|
--5--5--5--5--5--5--5--2--|--2--2--2--2--2--2--2--2--|
--3--3--3--3--3--3--3--0--|--0--0--0--0--0--0--0--0--|


  PM PM PM PM PM PM PM PM    PM PM PM PM PM PM PM PM  
  E  E  E  E  E  E  E  E     E  E  E  E  E  E  E  E   
--------------------------|--------------------------|
--------------------------|--------------------------|
--------------------------|--------------------------|
-----------------------5--|--5--5--5--5--5--5--5--5--|
--5--5--5--5--5--5--5--3--|--3--3--3--3--3--3--3--3--|
--3--3--3--3--3--3--3-----|--------------------------|


     PM PM    PM PM PM PM       PM PM    PM PM PM PM  
  E  E  E  E  E  E  E  E     E  E  E  E  E  E  E  E   
--------------------------|--------------------------|
--------------------------|--------------------------|
--------------------------|--------------------------|
--7--7--7--7--7--7--7--7--|--7--7--7--7--7--7--7--7--|
--5--5--5--5--5--5--5--5--|--5--5--5--5--5--5--5--5--|
--------------------------|--------------------------|


  E  E  E  E  E  E  E  E     E  E  E  E  E  E  E  E   
--------------------------|--------------------------|
--------------------------|--------------------------|
--------------------------|--------------------------|
--9--9--9--9--9--9--9--9--|--5--5--5--5--5--5--7--7--|
--7--7--7--6--6--6--5--5--|--3--3--3--3--3--3--5--5--|
--------------------------|--------------------------|


  E  E  E  E  E  E  E  E     E  E  E  E  E  E  E  E   
--------------------------|--------------------------|
--------------------------|--------------------------|
--------------------------|--------------------------|
--9--9--9--9--9--9--9--9--|--5--5--5--5--5--5--5--5--|
--7--7--7--6--6--6--5--5--|--3--3--3--3--3--3--3--3--|
--------------------------|--------------------------|


                             PM PM PM PM PM PM PM PM  
  E  E  E  E  E  E  E  E     E  E  E  E  E  E  E  E   
--------------------------|--------------------------|
--------------------------|--------------------------|
--------------------------|--------------------------|
--5--5--5--5--5--5--5--5--|--------------------------|
--3--3--3--3--3--3--3--3--|--5--5--5--5--5--5--5--2--|
--------------------------|--3--3--3--3--3--3--3--0--|


  PM PM PM PM PM PM PM PM    PM PM PM PM PM PM PM PM  
  E  E  E  E  E  E  E  E     E  E  E  E  E  E  E  E   
--------------------------|--------------------------|
--------------------------|--------------------------|
--------------------------|--------------------------|
--------------------------|--------------------------|
--2--2--2--2--2--2--2--2--|--5--5--5--5--5--5--5--2--|
--0--0--0--0--0--0--0--0--|--3--3--3--3--3--3--3--0--|


  PM PM PM PM PM PM PM PM    PM PM PM PM PM PM PM PM  
  E  E  E  E  E  E  E  E     E  E  E  E  E  E  E  E   
--------------------------|--------------------------|
--------------------------|--------------------------|
--------------------------|--------------------------|
--------------------------|-----------------------5--|
--2--2--2--2--2--2--2--2--|--5--5--5--5--5--5--5--3--|
--0--0--0--0--0--0--0--0--|--3--3--3--3--3--3--3-----|


  PM PM PM PM PM PM PM PM    PM PM PM PM PM PM PM PM  
  E  E  E  E  E  E  E  E     E  E  E  E  E  E  E  E   
--------------------------|--------------------------|
--------------------------|--------------------------|
--------------------------|--------------------------|
--5--5--5--5--5--5--5--5--|--5--5--5--5--5--5--5--5--|
--3--3--3--3--3--3--3--3--|--3--3--3--3--3--3--3--3--|
--------------------------|--------------------------|


  PM PM PM PM PM PM PM PM    PM PM PM PM PM PM PM PM  
  E  E  E  E  E  E  E  E     E  E  E  E  E  E  E  E   
--------------------------|--------------------------|
--------------------------|--------------------------|
--------------------------|--------------------------|
--7--7--7--7--7--7--7--7--|--------------------------|
--5--5--5--5--5--5--5--5--|--5--5--5--5--5--5--5--2--|
--------------------------|--3--3--3--3--3--3--3--0--|


  PM PM PM PM PM PM PM PM    PM PM PM PM PM PM PM PM  
  E  E  E  E  E  E  E  E     E  E  E  E  E  E  E  E   
--------------------------|--------------------------|
--------------------------|--------------------------|
--------------------------|--------------------------|
--------------------------|--------------------------|
--2--2--2--2--2--2--2--2--|--5--5--5--5--5--5--5--2--|
--0--0--0--0--0--0--0--0--|--3--3--3--3--3--3--3--0--|


  PM PM PM PM PM PM PM PM    PM PM PM PM PM PM PM PM  
  E  E  E  E  E  E  E  E     E  E  E  E  E  E  E  E   
--------------------------|--------------------------|
--------------------------|--------------------------|
--------------------------|--------------------------|
--------------------------|-----------------------5--|
--2--2--2--2--2--2--2--2--|--5--5--5--5--5--5--5--3--|
--0--0--0--0--0--0--0--0--|--3--3--3--3--3--3--3-----|


  PM PM PM PM PM PM PM PM    PM PM PM PM PM PM PM PM  
  E  E  E  E  E  E  E  E     E  E  E  E  E  E  E  E   
--------------------------|--------------------------|
--------------------------|--------------------------|
--------------------------|--------------------------|
--5--5--5--5--5--5--5--5--|--5--5--5--5--5--5--5--5--|
--3--3--3--3--3--3--3--3--|--3--3--3--3--3--3--3--3--|
--------------------------|--------------------------|


  PM PM PM PM PM PM PM PM    PM PM PM PM PM PM PM PM  
  E  E  E  E  E  E  E  E     E  E  E  E  E  E  E  E   
--------------------------|--------------------------|
--------------------------|--------------------------|
--------------------------|--------------------------|
--7--7--7--7--7--7--7--7--|--------------------------|
--5--5--5--5--5--5--5--5--|--5--5--5--5--5--5--5--5--|
--------------------------|--3--3--3--3--3--3--3--3--|


  PM PM PM PM PM PM PM PM                                              
  E  E  E  E  E  E  E  E     Q.     Q.     Q       Q.     Q.     Q     
--------------------------|---------------------|---------------------|
--------------------------|---------4------5----|----------------3----|
--------------------------|--4------------------|--5------5-----------|
--------------------------|---------------------|---------------------|
--5--5--5--5--5--5--5--5--|---------------------|---------------------|
--3--3--3--3--3--3--3--3--|---------------------|---------------------|


  Q.     Q.     Q       Q.     Q.     Q       Q.     Q.     Q     
---------------------|---------------------|---------------------|
---------4------5----|----------------3----|---------4------5----|
--4------------------|--5------5-----------|--4------------------|
---------------------|---------------------|---------------------|
---------------------|---------------------|---------------------|
---------------------|---------------------|---------------------|


                         PM PM PM PM PM PM PM PM    PM PM PM PM PM PM PM PM  
  Q.     Q.      Q       E  E  E  E  E  E  E  E     E  E  E  E  E  E  E  E   
----------------------|--------------------------|--------------------------|
----------------------|--------------------------|--------------------------|
--5------5\-----------|--------------------------|--------------------------|
----------------------|--5--5--5--5--5--5--5--5--|--5--5--5--5--5--5--5--5--|
----------------------|--3--3--3--3--3--3--3--3--|--3--3--3--3--3--3--3--3--|
----------------------|--------------------------|--------------------------|


  PM PM PM PM PM PM PM PM    PM PM PM PM PM PM PM PM  
  E  E  E  E  E  E  E  E     E  E  E  E  E  E  E  E   
--------------------------|--------------------------|
--------------------------|--------------------------|
--------------------------|--------------------------|
--7--7--7--7--7--7--7--7--|--9--9--9--9--9--9--9--9--|
--5--5--5--5--5--5--5--5--|--7--7--7--7--7--7--7--7--|
--------------------------|--------------------------|


  PM PM PM PM PM PM PM PM    PM PM PM PM PM PM PM PM  
  E  E  E  E  E  E  E  E     E  E  E  E  E  E  E  E   
--------------------------|--------------------------|
--------------------------|--------------------------|
--------------------------|--------------------------|
--5--5--5--5--5--5--5--5--|--9--9--9--9--9--9--9--9--|
--3--3--3--3--3--3--3--3--|--7--7--7--7--7--7--7--7--|
--------------------------|--------------------------|


  PM PM PM PM PM PM PM PM    PM PM PM PM PM PM PM PM  
  E  E  E  E  E  E  E  E     E  E  E  E  E  E  E  E   
--------------------------|--------------------------|
--------------------------|--------------------------|
--------------------------|--------------------------|
--5--5--5--5--5--5--5--5--|--------------------------|
--3--3--3--3--3--3--3--3--|--9--9--9--9--9--9--9--9--|
--------------------------|--7--7--7--7--7--7--7--7--|


  PM PM PM PM PM PM PM PM    PM PM PM PM                                       
  E  E  E  E  E  E  E  E     E  E  E  E  S S S S  S S S S    W                 
--------------------------|-------------------------------|--7----------------|
--------------------------|--------------8-7-----10-8-7---|-------------------|
--------------------------|------------------9-7--------9-|-------------------|
--5--5--5--5--5--5--5--5--|--5--5--5--5-------------------|-------------------|
--3--3--3--3--3--3--3--3--|--3--3--3--3-------------------|-------------------|
--------------------------|-------------------------------|-------------------|


                       PM PM PM PM PM PM PM PM    PM PM PM PM PM PM PM    
  H        H           E  E  E  E  E  E  E  E     E  E  E  E  E  E  Q     
--L-----------------|--------------------------|-------------------------|
--------------------|--------------------------|-------------------------|
--------------------|--------------------------|-------------------------|
--------------------|--------------------------|-------------------------|
--------------------|--5--5--5--5--5--5--5--2--|--2--2--2--2--2--2--2----|
--------------------|--3--3--3--3--3--3--3--0--|--0--0--0--0--0--0--0----|


  PM PM PM PM PM PM PM PM    PM PM PM PM PM PM PM PM  
  E  E  E  E  E  E  E  E     E  E  E  E  E  E  E  E   
--------------------------|--------------------------|
--------------------------|--------------------------|
--------------------------|--------------------------|
--9--9--9--9--9--9--9--9--|--5--5--5--5--5--5--7--7--|
--7--7--7--6--6--6--5--5--|--3--3--3--3--3--3--5--5--|
--------------------------|--------------------------|


  PM PM PM PM PM PM PM PM    PM PM PM PM PM PM PM PM  
  E  E  E  E  E  E  E  E     E  E  E  E  E  E  E  E   
--------------------------|--------------------------|
--------------------------|--------------------------|
--------------------------|--------------------------|
--9--9--9--9--9--9--9--9--|--5--5--5--5--5--5--5--5--|
--7--7--7--6--6--6--5--5--|--3--3--3--3--3--3--3--3--|
--------------------------|--------------------------|


  PM PM PM PM PM PM PM PM    PM PM PM PM PM PM PM PM  
  E  E  E  E  E  E  E  E     E  E  E  E  E  E  E  E   
--------------------------|--------------------------|
--------------------------|--------------------------|
--------------------------|--------------------------|
--5--5--5--5--5--5--5--5--|--------------------------|
--3--3--3--3--3--3--3--3--|--5--5--5--5--5--5--5--2--|
--------------------------|--3--3--3--3--3--3--3--0--|


  PM PM PM PM PM PM PM PM    PM PM PM PM PM PM PM PM  
  E  E  E  E  E  E  E  E     E  E  E  E  E  E  E  E   
--------------------------|--------------------------|
--------------------------|--------------------------|
--------------------------|--------------------------|
--------------------------|--------------------------|
--2--2--2--2--2--2--2--2--|--5--5--5--5--5--5--5--2--|
--0--0--0--0--0--0--0--0--|--3--3--3--3--3--3--3--0--|


  PM PM PM PM PM PM PM PM    PM PM PM PM PM PM PM PM  
  E  E  E  E  E  E  E  E     E  E  E  E  E  E  E  E   
--------------------------|--------------------------|
--------------------------|--------------------------|
--------------------------|--------------------------|
--------------------------|-----------------------5--|
--2--2--2--2--2--2--2--2--|--5--5--5--5--5--5--5--3--|
--0--0--0--0--0--0--0--0--|--3--3--3--3--3--3--3-----|


  PM PM PM PM PM PM PM PM    PM PM PM PM PM PM PM PM  
  E  E  E  E  E  E  E  E     E  E  E  E  E  E  E  E   
--------------------------|--------------------------|
--------------------------|--------------------------|
--------------------------|--------------------------|
--5--5--5--5--5--5--5--5--|--5--5--5--5--5--5--5--5--|
--3--3--3--3--3--3--3--3--|--3--3--3--3--3--3--3--3--|
--------------------------|--------------------------|


  PM PM PM PM PM PM PM PM    PM PM PM PM PM PM PM PM  
  E  E  E  E  E  E  E  E     E  E  E  E  E  E  E  E   
--------------------------|--------------------------|
--------------------------|--------------------------|
--------------------------|--------------------------|
--7--7--7--7--7--7--7--7--|--------------------------|
--5--5--5--5--5--5--5--5--|--5--5--5--5--5--5--5--2--|
--------------------------|--3--3--3--3--3--3--3--0--|


  PM PM PM PM PM PM PM PM    PM PM PM PM PM PM PM PM  
  E  E  E  E  E  E  E  E     E  E  E  E  E  E  E  E   
--------------------------|--------------------------|
--------------------------|--------------------------|
--------------------------|--------------------------|
--------------------------|--------------------------|
--2--2--2--2--2--2--2--2--|--5--5--5--5--5--5--5--2--|
--0--0--0--0--0--0--0--0--|--3--3--3--3--3--3--3--0--|


  PM PM PM PM PM PM PM PM    PM PM PM PM PM PM PM PM  
  E  E  E  E  E  E  E  E     E  E  E  E  E  E  E  E   
--------------------------|--------------------------|
--------------------------|--------------------------|
--------------------------|--------------------------|
--------------------------|-----------------------5--|
--2--2--2--2--2--2--2--2--|--5--5--5--5--5--5--5--3--|
--0--0--0--0--0--0--0--0--|--3--3--3--3--3--3--3-----|


  PM PM PM PM PM PM PM PM    PM PM PM PM PM PM PM PM  
  E  E  E  E  E  E  E  E     E  E  E  E  E  E  E  E   
--------------------------|--------------------------|
--------------------------|--------------------------|
--------------------------|--------------------------|
--5--5--5--5--5--5--5--5--|--5--5--5--5--5--5--5--5--|
--3--3--3--3--3--3--3--3--|--3--3--3--3--3--3--3--3--|
--------------------------|--------------------------|


  PM PM PM PM PM PM PM PM                                                   
  E  E  E  E  E  E  E  E     Q    E  Q    E  Q       E  E  Q    E  E  Q     
--------------------------|-------3-------3-------|------------------------|
--------------------------|-------3-------3-------|-----5-------5--5-------|
--------------------------|-----------------------|-----4-------4--4-------|
--7--7--7--7--7--7--7--7--|-----------------------|------------------------|
--5--5--5--5--5--5--5--5--|-----------------------|------------------------|
--------------------------|-----------------------|------------------------|


  Q    E  Q    E  Q       E  E  Q    E  E  Q       Q    E  Q    E  Q     
-------3-------3-------|------------------------|-------3-------3-------|
-------3-------3-------|-----5-------5--5-------|-------3-------3-------|
-----------------------|-----4-------4--4-------|-----------------------|
-----------------------|------------------------|-----------------------|
-----------------------|------------------------|-----------------------|
-----------------------|------------------------|-----------------------|


  PM PM PM PM PM PM PM PM    PM PM PM PM PM PM PM PM  
  E  E  E  E  E  E  E  E     E  E  E  E  E  E  E  E   
--------------------------|--------------------------|
--------------------------|--------------------------|
--------------------------|--5--------5--------------|
--5--5--5--5--5--5--5--5--|--5--5--5--5--5--5--5--5--|
--3--3--3--3--3--3--3--3--|--3--3--3--3--3--3--3--3--|
--------------------------|--------------------------|


     PM PM    PM PM PM PM                                                   
  E  E  E  E  E  E  E  E     Q    E  Q    E  Q       E  E  Q    E  E  Q     
--------------------------|-------3-------3-------|------------------------|
--------------------------|-------3-------3-------|-----5-------5--5-------|
--7--------7--------------|-----------------------|-----4-------4--4-------|
--7--7--7--7--7--7--7--7--|-----------------------|------------------------|
--5--5--5--5--5--5--5--5--|-----------------------|------------------------|
--------------------------|-----------------------|------------------------|


  Q    E  Q    E  Q       E  E  Q    E  E  Q       Q    E  Q    E  Q     
-------3-------3-------|------------------------|-------3-------3-------|
-------3-------3-------|-----5-------5--5-------|-------3-------3-------|
-----------------------|-----4-------4--4-------|-----------------------|
-----------------------|------------------------|-----------------------|
-----------------------|------------------------|-----------------------|
-----------------------|------------------------|-----------------------|


  PM PM PM PM PM PM PM PM    PM PM PM PM PM PM PM PM  
  E  E  E  E  E  E  E  E     E  E  E  E  E  E  E  E   
--------------------------|--------------------------|
--------------------------|--------------------------|
--------------------------|--5--------5--------------|
--5--5--5--5--5--5--5--5--|--5--5--5--5--5--5--5--5--|
--3--3--3--3--3--3--3--3--|--3--3--3--3--3--3--3--3--|
--------------------------|--------------------------|


     PM PM    PM PM PM PM                                                   
  E  E  E  E  E  E  E  E     Q    E  Q    E  Q       E  E  Q    E  E  Q     
--------------------------|-------3-------3-------|------------------------|
--------------------------|-------3-------3-------|-----5-------5--5-------|
--7--------7--------------|-----------------------|-----4-------4--4-------|
--7--7--7--7--7--7--7--7--|-----------------------|------------------------|
--5--5--5--5--5--5--5--5--|-----------------------|------------------------|
--------------------------|-----------------------|------------------------|


  Q    E  Q    E  Q       E  E  Q    E  E  Q       Q    E  Q    E  Q     
-------3-------3-------|------------------------|-------3-------3-------|
-------3-------3-------|-----5-------5--5-------|-------3-------3-------|
-----------------------|-----4-------4--4-------|-----------------------|
-----------------------|------------------------|-----------------------|
-----------------------|------------------------|-----------------------|
-----------------------|------------------------|-----------------------|


  PM PM PM PM PM PM PM PM    PM PM PM PM PM PM PM PM   
  E  E  E  E  E  E  E  E     E  E  E  E  E  E  E  E    
--------------------------|--------------------------||
--------------------------|--------------------------||
--------------------------|--5--------5--------------||
--5--5--5--5--5--5--5--5--|--5--5--5--5--5--5--5--5--||
--3--3--3--3--3--3--3--3--|--3--3--3--3--3--3--3--3--||
--------------------------|--------------------------||



=============================================================================



Guitar 3



                                                     Q    E  E  H         
E||-------|-------|-------|-------|-------|-------|----------3-----------|
B||-------|-------|-------|-------|-------|-------|----------3-----------|
G||-------|-------|-------|-------|-------|-------|----------------------|
D||-------|-------|-------|-------|-------|-------|----------------------|
A||-------|-------|-------|-------|-------|-------|----------------------|
E||-------|-------|-------|-------|-------|-------|----------------------|


  E  Q    E  H                                                         
--3-------3-----------|-----------|-----------|-----------|-----------|
--3-------3-----------|-----------|-----------|-----------|-----------|
----------------------|-----------|-----------|-----------|-----------|
----------------------|-----------|-----------|-----------|-----------|
----------------------|-----------|-----------|-----------|-----------|
----------------------|-----------|-----------|-----------|-----------|


-----------|-----------|-----------|-----------|-----------|-----------|-------|
-----------|-----------|-----------|-----------|-----------|-----------|-------|
-----------|-----------|-----------|-----------|-----------|-----------|-------|
-----------|-----------|-----------|-----------|-----------|-----------|-------|
-----------|-----------|-----------|-----------|-----------|-----------|-------|
-----------|-----------|-----------|-----------|-----------|-----------|-------|


          E  Q    Q.     Q       E  Q    Q.     Q       E  Q    Q.     Q     
-------|--3-------2------3----|----------------------|--3-------2------3----|
-------|--5-------4------3----|--5-------5------7----|--5-------4------3----|
-------|----------------------|--5-------5------7----|----------------------|
-------|----------------------|----------------------|----------------------|
-------|----------------------|----------------------|----------------------|
-------|----------------------|----------------------|----------------------|


  E  E  H.                                      H        S S E  S S E           
---------------------|---------------|-------|-------------------------|-------|
--5-----5------------|---------------|-------|-----------5-L-5------3--|-------|
--5-----5------------|---------------|-------|-----------3-2-0--2-4----|-------|
---------------------|---------------|-------|-------------------------|-------|
---------------------|---------------|-------|-------------------------|-------|
---------------------|---------------|-------|-------------------------|-------|


  H        E  E  S  S E                                                   
-----------3--3----------|-------|-------|-------|-------|-------|-------|
-----------5--3----------|-------|-------|-------|-------|-------|-------|
-----------------4p-2----|-------|-------|-------|-------|-------|-------|
----------------------5--|-------|-------|-------|-------|-------|-------|
-------------------------|-------|-------|-------|-------|-------|-------|
-------------------------|-------|-------|-------|-------|-------|-------|


  E  E  H.              H          Q    E  E                           
--3------------------|-------------3----3--3--|-----------|-----------|
--3------------------|-----------5g5----5--3--|-----------|-----------|
---------------------|------------------------|-----------|-----------|
---------------------|------------------------|-----------|-----------|
---------------------|------------------------|-----------|-----------|
---------------------|------------------------|-----------|-----------|


                                      Q    E   E  E  E  E  E   
-----------|-----------|-----------|-----------------3--3-----|
-----------|-----------|-----------|-----------------3--3-----|
-----------|-----------|-----------|----------/4--L--------4--|
-----------|-----------|-----------|--------------------------|
-----------|-----------|-----------|--------------------------|
-----------|-----------|-----------|--------------------------|


  E  Q    Q.     Q       E  Q    Q.     Q       E  Q    Q.     Q     
--3-------2------3----|----------------------|--3-------2------3----|
--5-------4------3----|--5-------5------7----|--5-------4------3----|
----------------------|--5-------5------7----|----------------------|
----------------------|----------------------|----------------------|
----------------------|----------------------|----------------------|
----------------------|----------------------|----------------------|


  E  E  H.                                      H        S S E  S S E           
---------------------|---------------|-------|-------------------------|-------|
--5-----5------------|---------------|-------|-----------5-L-5------3--|-------|
--5-----5------------|---------------|-------|-----------3-2-0--2-4----|-------|
---------------------|---------------|-------|-------------------------|-------|
---------------------|---------------|-------|-------------------------|-------|
---------------------|---------------|-------|-------------------------|-------|


  H        E  E  S  S E                                           
-----------3--3----------|-------|-------|-------|-------|-------|
-----------5--3----------|-------|-------|-------|-------|-------|
-----------------4p-2----|-------|-------|-------|-------|-------|
----------------------5--|-------|-------|-------|-------|-------|
-------------------------|-------|-------|-------|-------|-------|
-------------------------|-------|-------|-------|-------|-------|


  H        S S E  S S E             H        E  E  S  S E                   
-------------------------|-------|-----------3--3----------|-------|-------|
-----------5-L-5------3--|-------|-----------5--3----------|-------|-------|
-----------3-2-0--2-4----|-------|-----------------4p-2----|-------|-------|
-------------------------|-------|----------------------5--|-------|-------|
-------------------------|-------|-------------------------|-------|-------|
-------------------------|-------|-------------------------|-------|-------|


-------|-------|-------|-------|-------|-------|-------|-------|-------|-------|
-------|-------|-------|-------|-------|-------|-------|-------|-------|-------|
-------|-------|-------|-------|-------|-------|-------|-------|-------|-------|
-------|-------|-------|-------|-------|-------|-------|-------|-------|-------|
-------|-------|-------|-------|-------|-------|-------|-------|-------|-------|
-------|-------|-------|-------|-------|-------|-------|-------|-------|-------|


-------|-------|-------|-------|-------|-------|-------|-------|-------|-------|
-------|-------|-------|-------|-------|-------|-------|-------|-------|-------|
-------|-------|-------|-------|-------|-------|-------|-------|-------|-------|
-------|-------|-------|-------|-------|-------|-------|-------|-------|-------|
-------|-------|-------|-------|-------|-------|-------|-------|-------|-------|
-------|-------|-------|-------|-------|-------|-------|-------|-------|-------|


-------|-------|-------|-------|-------|-------|-------|-------|-------|-------|
-------|-------|-------|-------|-------|-------|-------|-------|-------|-------|
-------|-------|-------|-------|-------|-------|-------|-------|-------|-------|
-------|-------|-------|-------|-------|-------|-------|-------|-------|-------|
-------|-------|-------|-------|-------|-------|-------|-------|-------|-------|
-------|-------|-------|-------|-------|-------|-------|-------|-------|-------|


  H        S S E  S S E             H        E  E  S  S E                   
-------------------------|-------|-----------3--3----------|-------|-------|
-----------5-L-5------3--|-------|-----------5--3----------|-------|-------|
-----------3-2-0--2-4----|-------|-----------------4p-2----|-------|-------|
-------------------------|-------|----------------------5--|-------|-------|
-------------------------|-------|-------------------------|-------|-------|
-------------------------|-------|-------------------------|-------|-------|


                          H        S S E  S S E           
-------|-------|-------|-------------------------|-------|
-------|-------|-------|-----------5-L-5------3--|-------|
-------|-------|-------|-----------3-2-0--2-4----|-------|
-------|-------|-------|-------------------------|-------|
-------|-------|-------|-------------------------|-------|
-------|-------|-------|-------------------------|-------|


  H        E  E  S  S E                                                   
-----------3--3----------|-------|-------|-------|-------|-------|-------|
-----------5--3----------|-------|-------|-------|-------|-------|-------|
-----------------4p-2----|-------|-------|-------|-------|-------|-------|
----------------------5--|-------|-------|-------|-------|-------|-------|
-------------------------|-------|-------|-------|-------|-------|-------|
-------------------------|-------|-------|-------|-------|-------|-------|


-------|-------|-------|-------|-------|-------|-------|-------|-------|-------|
-------|-------|-------|-------|-------|-------|-------|-------|-------|-------|
-------|-------|-------|-------|-------|-------|-------|-------|-------|-------|
-------|-------|-------|-------|-------|-------|-------|-------|-------|-------|
-------|-------|-------|-------|-------|-------|-------|-------|-------|-------|
-------|-------|-------|-------|-------|-------|-------|-------|-------|-------|


-------|-------|-------|-------|-------|-------|-------|-------|-------|-------|
-------|-------|-------|-------|-------|-------|-------|-------|-------|-------|
-------|-------|-------|-------|-------|-------|-------|-------|-------|-------|
-------|-------|-------|-------|-------|-------|-------|-------|-------|-------|
-------|-------|-------|-------|-------|-------|-------|-------|-------|-------|
-------|-------|-------|-------|-------|-------|-------|-------|-------|-------|


-------||
-------||
-------||
-------||
-------||
-------||




Duration Legend
---------------
W - whole
H - half
Q - quarter
E - 8th
S - 16th
T - 32nd
X - 64th
. - note dotted
|-n-|  - n-tuplets


Tablature Legend
----------------
L - tied note
x - dead note
g - grace note
(n) - ghost note
> - accentuded note
NH - natural harmonic
AH - artificial harmonic
TH - tapped harmonic
SH - semi harmonic
PH - pitch harmonic
h - hammer on
p - pull off
b - bend
br - bendRelease
pb - preBend
pbr - preBendRelease
brb - bendReleaseBend
\n/ - tremolo bar dip
\n - tremolo bar dive
-/n - tremolo bar Release up
/n\ - tremolo bar inverted dip
/n - tremolo bar return
-\n - tremolo bar Release down
S - shift slide
s - legato slide
/ -  slide into from below or out of upwards
\ -  slide into from above or out of downwards
~ - vibrato
W - wide vibrato
tr - trill
TP - tremolo picking
T - tapping
S - slap
P - pop
< - fade in
^ - brush up
v - brush down
comments
We did not receive enough feedback on this tab! Please rate:
print report bad tab
1 2 3 4 5
I want to post or [tab]
guest
You may want to rate the tab now too:
select rating
Please do not post tabs as comments. Select "correction" instead!