Oops, an error
Loading. Please wait.

Robin Hood Tab

1,043 views 6 this week
1 commentread comment
1 2 3 4 5
excellent!
x 1
Autoscroll
+/-
esc
set tempo
stop
Contributor
Difficulty
intermediate
WARNING: You are trying to view
                                    content from Ultimate-Guitar.com
                                    in an unauthorized application,
                                    which is prohibited.

                                    Please use an official Ultimate
                                    Guitar Tabs application for iPhone,
                                    iPad or Android to access legitimate
                                    chords, guitar, bass, and drum tabs
                                    from Ultimate-Guitar.com database.

                                    Type "ultimate guitar tabs" in Apple
                                    App Store's or Android Market's
                                    search to find the application.
------------------------------------------------------------------------------
			     Robin Hood - 38. Special
                   Rockin' into the night album -1980
                  Music by Don Barnes and Jeff Carlisli
------------------------------------------------------------------------------

This song on the studio recording contains four guitars. One providing the main melody
line and solos. A second occasionally reinforcing the melody by providing harmony. The
third, the main rhythm and the fourth a support rhythm track with acoustic guitar. For 
the two melody guitars the harmony will appear
directly under the primary guitar exactly where in falls in the music. This will
hopefully make it clear on how the harmonies fit together and if playing with another guitarist
you can generate the proper harmonies.

Tabbed by: Duane Baldwin
Email: duane&julie@gmail.com

Tuning: Standard

Intro

Guitar I (blues overdrive)
e|------------|------------|------------|------------|------------|
B|------------|------------|------------|------------|------------|
G|--0--4--7---|------------|--0--4--7---|------------|------------|
D|------------|------------|------------|------------|------------|
A|------------|------------|------------|------------|------------|
E|------------|------------|------------|------------|------------|

e|------------|------------|------------|
B|------------|------------|------------|
G|--0--4--7---|------------|------------|
D|------------|------------|------------|
A|------------|------------|------------|
E|------------|------------|------------|

Main theme
e|----------------------|-----------------------------|-----------------|
B|----------------------|--------------------------5--|--7/8------------|
G|--7--4--------4--5/7--|--7--4--------4--5--5--7-----|---------0--2--4/|
D|--------5--7----------|--------5--7-----------------|-----------------|
A|----------------------|-----------------------------|-----------------|
E|----------------------|-----------------------------|-----------------|

e|----------------|----------------------|--------------------------|
B|----------------|----------------------|--------------------------|
G|/5/7\5--4--2h0--|--7--4--------4--5/7--|--7--4--------4--5--5--4--|
D|----------------|--------5--7----------|--------5--7--------------|
A|----------------|----------------------|--------------------------|
E|----------------|----------------------|--------------------------|

e|--------------|----------------------------------|
B|--------------|--6--5--3-----3--5--3-------------|
G|--5--4-----4--|-----------5-----------5--3hb-----|
D|--------5-----|-------------------------------5--|
A|--------------|----------------------------------|
E|--------------|----------------------------------|

Guitar I

e|----------------------|-----------------------------|-----------------|
B|----------------------|--------------------------5--|--7/8------------|
G|--7--4--------4--5/7--|--7--4--------4--5--5--7-----|---------0--2--4/|
D|--------5--7----------|--------5--7-----------------|-----------------|
A|----------------------|-----------------------------|-----------------|
E|----------------------|-----------------------------|-----------------|

Guitar II Harmony
e|----------------------|-----------------------------|-----------------|
B|--8-----------------8-|--8------------------------5-|--8-----3--5--6--|
G|-----9--7-----9--7----|-----9--7-----7--9--10--7----|-----------------|
D|-----------9----------|-----------9-----------------|-----------------|
A|----------------------|-----------------------------|-----------------|
E|----------------------|-----------------------------|-----------------|

Guitar I
e|-------------------|----------------------|--------------------------|
B|-------------------|----------------------|--------------------------|
G|/5/7\5--4--2h0-----|--7--4--------4--5/7--|--7--4--------4--5--5--4--|
D|----------------2--|--------5--7----------|--------5--7--------------|
A|-------------------|----------------------|--------------------------|
E|-------------------|----------------------|--------------------------|

Guitar II Harmony
e|-------------------|----------------------|--------------------------|
B|--6--6--5--3-------|--8-----------------8-|--8-----------------------|
G|--------------5--0-|-----9--7-----9--7----|-----9--7-----7--9--10----|
D|-------------------|-----------9----------|-----------9--------------|
A|-------------------|----------------------|--------------------------|
E|-------------------|----------------------|--------------------------|

Guitar I
e|-------------------|-------------------------|---------------------|
B|-------------------|-------------------------|---------------------|
G|--4hbr-------------|-------------------------|--7p4--------4\2-----|
D|--------5-------5--|--7b--7br--7p5-----5--5--|-------5--7-------5--|
A|-----------3/7-----|----------------7--------|---------------------|
E|-------------------|-------------------------|---------------------|

Guitar II Harmony
e|-------------------|-------------------------|-----------------------|
B|-------------------|-------------------------|--5--3-----3--5--------|
G|-------------------|----------------------5--|--------5--------5--5--|
D|-------------------|-------------------------|-----------------------|
A|-------------------|-------------------------|-----------------------|
E|-------------------|-------------------------|-----------------------|

Guitar I
e|----------------------|----------------------|-----------------------------|
B|----------------------|-------------------8--|--10b--10b--8--10p8-----8----|
G|--7p4--------4--5--4--|--------------6/9-----|---------------------9-------|
D|-------5--7-----------|-----------5----------|---------------------------5-|
A|----------------------|----------------------|-----------------------------|
E|----------------------|--3--3--1-------------|-----------------------------|

Guitar II Harmony
e|----------------------|----------------------|-----------------------------|
B|-5--3-----3--5--6--5--|---------6--8---------|-----------------------------|
G|-------5--------------|----------------------|--------------------------5--|
D|----------------------|----------------------|-----------------------------|
A|----------------------|----------------------|-----------------------------|
E|----------------------|----------------------|-----------------------------|

Guitar I
e|----------------------|----------------------|-------------------|
B|----------------------|----------------------|--------------6qb--|
G|--7p4--------4\2------|--7p4--------4--5--4--|-------------------|
D|-------5--7-------5---|-------5--7-----------|-----------5-------|
A|----------------------|----------------------|-------------------|
E|----------------------|----------------------|--3--3--1----------|

Guitar II Harmony
e|----------------------|---------------------|--------------------|
B|--5--3-----3--5-------|--5-3-----3--5--6--5-|--------------------|
G|--------5--------5--5-|--------5------------|--------------------|
D|----------------------|---------------------|-----------5--------|
A|----------------------|---------------------|--------------------|
E|----------------------|---------------------|--3--3--1-----------|

Guitar I
e|--3------------------------------|
B|-----3--6p3-----3----------------|
G|-------------5-----5--3--5p3-----|
D|------------------------------5--|
A|---------------------------------|
E|---------------------------------|

Guitar I
e|----------------------|-------------------------------|-----------------|
B|----------------------|---------------------------5---|--7/8------------|
G|--7--4--------4--5/7--|--7--4--------4--5---5--7------|---------0--2--4/|
D|--------5--7----------|--------5--7-------------------|-----------------|
A|----------------------|-------------------------------|-----------------|
E|----------------------|-------------------------------|-----------------|

Guitar II Harmony
e|----------------------|---------------------------------|---------------|
B|--8-----------------8-|--8------------------------5--6--|--8---3--5--6--|
G|-----9--7-----9--7----|-----9--7-----7--9--10--7--------|---------------|
D|-----------9----------|-----------9---------------------|---------------|
A|----------------------|---------------------------------|---------------|
E|----------------------|---------------------------------|---------------|

Guitar I
e|----------------------|----------------------|--------------------------|
B|----------------------|----------------------|--------------------------|
G|/5--5\4-2--0----------|--7--4--------4--5/7--|--7--4--------4--5--5--4--|
D|--------------2p0-----|--------5--7----------|--------5--7--------------|
A|-------------------2--|----------------------|--------------------------|
E|----------------------|----------------------|--------------------------|


Guitar II
e|----------------------|-----------------------|------------------------|
B|--6--6--5--3----------|--8-----------------8--|--8---------------------|
G|---------------5--0---|-----9--7-----9--7-----|-----9--7-----9--7--10--|
D|----------------------|-----------9-----------|-----------9------------|
A|----------------------|-----------------------|------------------------|
E|----------------------|-----------------------|------------------------|

1st Bridge Guitar I
e|---------------|--------------------------------|-------------------------|
B|---------------|--------------------------------|-------------------------|
G|--5--4--0------|--------------------------------|----------------------3--|
D|------------0--|--3--2--0-----0--2--0-----------|--5-----------3---5---3--|
A|---------------|-----------3-----------3--2--0--|--5-----------3---5---1--|
E|---------------|--------------------------------|--3-----------1---3------|

1st Bridge Guitar II Harmony
e|---------------|--------------------------------|-------------------------|
B|---------------|--6--5-----------5--------------|-------------------------|
G|---------------|--------7--5--7-----7--5--3-----|-------------------------|
D|---------------|-----------------------------5--|-------------------------|
A|---------------|--------------------------------|-------------------------|
E|---------------|--------------------------------|-------------------------|

Guitar I
e|----------------------------|-----------------|----------------------------|
B|----------------------------|-----------------|----------------------------|
G|-------------------------3--|-----------------|----------------------------|
D|-------------------------3--|--5-----3--5--3--|-------------------------3--|
A|-------------------------1--|--5-----3--5--3--|----------------------------|
E|----------------------------|--3-----1--3--1--|----------------------------|

Guitar II Harmony
         Let Ring ----|                                 Let Ring --------------|
e|----------------------------|-----------------|------------------------------|
B|----------1-----1-----------|-----------------|----------1-----1-------------|
G|--0--2h3-----3-----3--2--0--|-----------------|--0--2h3-----3-----3--2--0----|
D|----------------------------|-----------------|------------------------------|
A|----------------------------|-----------------|------------------------------|
E|----------------------------|-----------------|------------------------------|

Guitar I
e|-----------------|----------------------------|---------|--1---1---1---1---|
B|-----------------|----------------------------|---------|--1---1---1---1---|
G|--------------3--|-------------------------3--|--5------|--0---0---0---0---|
D|--5-----3--5--3--|-------------------------3--|--5------|------------------|
A|--------3--5--1--|-------------------------1--|--3------|------------------|
E|--------1--3-----|----------------------------|---------|------------------|

Guitar II Harmony
                            Let Ring ----|
e|-----------------|----------------------------|---------|------------------|
B|-----------------|----------1-----1-----------|---------|------------------|
G|-----------------|--0--2h3-----3-----3--2--0--|---------|------------------|
D|-----------------|----------------------------|---------|------------------|
A|-----------------|----------------------------|---------|------------------|
E|-----------------|----------------------------|---------|------------------|
2nd Theme Guitar I
e|--------------------------------|-----------------------|
B|--------------------------------|-----------------------|
G|--------------------------------|-----------------------|
D|--3--1--0-----0--1--0-----------|-----------------0-----|
A|-----------3-----------3--0-----|--------0--1--3--------|
E|-----------------------------1--|--1--3--------------3--|

e|-------------------------------|-----------------------|
B|-------------------------------|-----------------------|
G|----------3-----3--5b--5br--3--|-----------------------|
D|--1--3/5-----5-----------------|--3--1--0--------------|
A|-------------------------------|-----------3--1--0-----|
E|-------------------------------|--------------------1--|

e|---------------------------------|--------------------------|
B|---------------------------------|--------------------------|
G|---------------------------------|--3-----3--5--3--5/7---7--|
D|------------------------3--3--5--|-----5--------------------|
A|----------1-----1--3/5-----------|--------------------------|
E|--1--1h3-----3-------------------|--------------------------|

guitar II Harmony
e|---------------------------------|--------------------------|
B|---------------------------------|-------------------6---6--|
G|---------------------------------|--------------------------|
D|---------------------------------|--------------------------|
A|---------------------------------|--------------------------|
E|---------------------------------|--------------------------|

Guitar I
e|----------------------------------------|------------------------------|
B|----------------------------------------|--------------------------13--|
G|--5--3--5--7--5--7--8--7--8--10--8--10--|--12--10--12--14--12--14------|
D|----------------------------------------|------------------------------|
A|----------------------------------------|------------------------------|
E|----------------------------------------|------------------------------|

Guitar II
e|----------------------------------------|--8-------8---10--8---10--13--|
B|--4--3--4--6--4--6--8--6--8--10--8--10--|------10----------------------|
G|----------------------------------------|------------------------------|
D|----------------------------------------|------------------------------|
A|----------------------------------------|------------------------------|
E|----------------------------------------|------------------------------|

Guitar I Main Theme
e|----------------------|--------------------------------|-----------------|
B|----------------------|---------------------------5----|--7/8------------|
G|--7--4--------4--5/7--|--7--4--------4--5---5--7-------|---------0--2--4/|
D|--------5--7----------|--------5--7--------------------|-----------------|
A|----------------------|--------------------------------|-----------------|
E|----------------------|--------------------------------|-----------------|

Guitar II Harmony
e|----------------------|---------------------------------|-----------------|
B|--8-----------------8-|--8------------------------5--6--|--8--------------|
G|-----9--7-----9--7----|-----9--7-----7--9--10--7--------|-----------------|
D|-----------9----------|-----------9---------------------|-----------------|
A|----------------------|---------------------------------|-----------------|
E|----------------------|---------------------------------|-----------------|

Guitar I
e|-------------------|----------------------|--------------------------|
B|-------------------|----------------------|--------------------------|
G|/5/7\5--4--2h0-----|--7--4--------4--5/7--|--7--4--------4--5--5--4--|
D|-------------------|--------5--7----------|--------5--7--------------|
A|-------------------|----------------------|--------------------------|
E|-------------------|----------------------|--------------------------|

Guitar II Harmony
e|-------------------|----------------------|--------------------------|
B|--6--6--5--3-------|--8-----------------8-|--------------------------|
G|--------------5--0-|-----9--7-----9--7----|--------------------------|
D|-------------------|-----------9----------|--------------------------|
A|-------------------|----------------------|--------------------------|
E|-------------------|----------------------|--------------------------|

Guitar I
e|-------------------|------------------------------|-----------------------|
B|-------------------|------------------------------|-----------------------|
G|--5--4-------------|------------------------------|--7p4---------4\2------|
D|--------5-------5--|--5b--5b--5b--7p5-----7p5-----|-------5--7---------5--|
A|-----------5/7-----|-------------------5-------5--|-----------------------|
E|-------------------|------------------------------|-----------------------|

Guitar II Harmony
e|-------------------|------------------------------|-----------------------|
B|-------------------|------------------------------|--5--3-----3--5--------|
G|-------------------|------------------------------|--------5--------5--5--|
D|-------------------|------------------------------|-----------------------|
A|-------------------|------------------------------|-----------------------|
E|-------------------|------------------------------|-----------------------|

Guitar I
e|----------------------|----------------------|-----------------------------|
B|----------------------|-------------------8--|--10b--10b--8--10p8-----8----|
G|--7p4--------4--5--4--|--------------6/9-----|---------------------9-------|
D|-------5--7-----------|-----------5----------|---------------------------5-|
A|----------------------|----------------------|-----------------------------|
E|----------------------|--3--3--1-------------|-----------------------------|

Guitar II Harmony
e|----------------------|----------------------|-----------------------------|
B|-5--3-----3--5--6--5--|----------------------|-----------------------------|
G|-------5--------------|----------------------|-----------------------------|
D|----------------------|----------------------|-----------------------------|
A|----------------------|----------------------|-----------------------------|
E|----------------------|----------------------|-----------------------------|

Guitar I
e|----------------------|----------------------|-------------------|
B|----------------------|----------------------|--------------6qb--|
G|--7p4--------4\2------|--7p4--------4--5--4--|-------------------|
D|-------5--7-------5---|-------5--7-----------|-----------5-------|
A|----------------------|----------------------|-------------------|
E|----------------------|----------------------|--3--3--1----------|

Guitar II Harmony
e|----------------------|---------------------|--------------------|
B|--5--3-----3--5-------|--5-3-----3--5--6--5-|--------------------|
G|--------5--------5--5-|--------5------------|--------------------|
D|----------------------|---------------------|-----------5--------|
A|----------------------|---------------------|--------------------|
E|----------------------|---------------------|--3--3--1-----------|

Guitar I
e|--3------------------------------|
B|-----3--6p3-----3----------------|
G|-------------5-----5--3--5p3-----|
D|------------------------------5--|
A|---------------------------------|
E|---------------------------------|

Guitar I
e|----------------------|-----------------------------|-----------------|
B|----------------------|--------------------------5--|--7/8------------|
G|--7--4--------4--5/7--|--7--4--------4--5--5--7-----|---------0--2--4/|
D|--------5--7----------|--------5--7-----------------|-----------------|
A|----------------------|-----------------------------|-----------------|
E|----------------------|-----------------------------|-----------------|

Guitar II Harmony
e|----------------------|---------------------------------|-------------|
B|--8-----------------8-|--8------------------------5--6--|--8----------|
G|-----9--7-----9--7----|-----9--7-----7--9--10--7--------|-------------|
D|-----------9----------|-----------9---------------------|-------------|
A|----------------------|---------------------------------|-------------|
E|----------------------|---------------------------------|-------------|

Guitar I
e|----------------------|-----------------------|--------------------------|
B|----------------------|-----------------------|--------------------------|
G|/5--5\4-2--0----------|--7--4--------4---5/7--|--7--4--------4--5--5--4--|
D|--------------2p0-----|--------5--7-----------|--------5--7--------------|
A|-------------------2--|-----------------------|--------------------------|
E|----------------------|-----------------------|--------------------------|

Guitar II
e|----------------------|-----------------------|--------------------------|
B|--6--6--5--3----------|--8-----------------8--|--------------------------|
G|---------------5--0---|-----9--7-----9--7-----|--------------------------|
D|----------------------|-----------9-----------|--------------------------|
A|----------------------|-----------------------|--------------------------|
E|----------------------|-----------------------|--------------------------|

Guitar I
e|-------------------10--13b--10--|--13b--13--10------10----------|
B|--------------13b---------------|---------------13------11------|
G|--------------------------------|---------------------------12--|
D|-----------5--------------------|-------------------------------|
A|--------------------------------|-------------------------------|
E|--3--3--1-----------------------|-------------------------------|

Guitar I
e|-----------------------|-------------------------|
B|-----------------------|-------------------------|
G|--7p4---------4\2------|--7p4--------4--5--4-----|
D|-------5--7---------5--|-------5--7-----------5--|
A|-----------------------|-------------------------|
E|-----------------------|-------------------------|

Guitar II Harmony
e|-----------------------|-------------------------|
B|--5--3-----3--5--------|--5--3-----3--5--6--5----|
G|--------5--------5--5--|--------5----------------|
D|-----------------------|-------------------------|
A|-----------------------|-------------------------|
E|-----------------------|-------------------------|

Guitar I 2nd Bridge
e|----------------|--------------------|--------------|--------------------|
B|----------------|--------------------|--------------|--------------------|
G|----------------|--------------------|--------------|--------------------|
D|----------------|--------------------|--------------|--------------------|
A|----------------|--0--0--2--3--2--0--|--------------|--0--0--2--3--2--0--|
E|----------------|--------------------|--------------|--------------------|

e|----------------|-----------------------|----------------|---------------|
B|----------------|-----------------------|----------------|---------------|
G|----------------|-----------------------|----------------|---------------|
D|----------------|-----------------------|--------3/5--4--|--2------------|
A|-----------5----|--3--0--0--2--3--2--0--|----------------|-----5--3--2---|
E|--3--2--0-------|-----------------------|--3--2----------|---------------|

e|--------------------|---------------|-----------3--|
B|--------------------|------------3--|--5p3h5-------|
G|-----2/4--4\2--2/7--|-----4p2h4-----|--------------|
D|--------------------|--5------------|--------------|
A|--------------------|---------------|--------------|
E|--3-----------------|---------------|--------------|

Guitar II Harmony
e|--------------------|---------------|-----------8--|
B|--------------------|---------------|--10p8h10-----|
G|--------------------|---------------|--------------|
D|--------------------|---------------|--------------|
A|--------------------|---------------|--------------|
E|--------------------|---------------|--------------|

Guitar I
e|------------------------------------|--------------------|---------------|
B|------------------3-----------------|--------------------|------------3--|
G|--2h4p2--2--4--5-----5--4--5--4--2--|-----2/4--4\2--2/7--|-----4p2h4-----|
D|------------------------------------|--5-----------------|--5------------|
A|------------------------------------|--------------------|---------------|
E|------------------------------------|--------------------|---------------|

e|-----------3--|------------------------------------|
B|--5p3h5-------|------------------------------------|
G|--------------|--2h4p2--2--4--5--7--5--7--9--7--9--|
D|--------------|------------------------------------|
A|--------------|------------------------------------|
E|--------------|------------------------------------|

Guitar II Harmony
e|-----------8--|------------------------------------|
B|--10p8h10-----|------------------------6--8--6--8--|
G|--------------|------------------------------------|
D|--------------|------------------------------------|
A|--------------|------------------------------------|
E|--------------|------------------------------------|

Guitar I
e|-------------------------------------------------|
B|-------------------------------------13----------|
G|--10--9--10--12--10--12--14--12--14------12--14--|
D|-------------------------------------------------|
A|-------------------------------------------------|
E|-------------------------------------------------|

Guitar II Harmony
e|-------------------------------------13--12------|
B|--10--8--10--11--10--11--13--11--13----------15--|
G|-------------------------------------------------|
D|-------------------------------------------------|
A|-------------------------------------------------|
E|-------------------------------------------------|

2nd Theme Guitar I
e|--------------------------------|-----------------------|
B|--------------------------------|-----------------------|
G|--------------------------------|-----------------------|
D|--3--1--0-----0--1--0-----------|-----------------0-----|
A|-----------3-----------3--0-----|--------0--1--3--------|
E|-----------------------------1--|--1--3--------------3--|

e|-------------------------------------|-------------------------|
B|------------------6------------------|-------------------------|
G|----------3--5/7-----7\5--3--5p3-----|-------------------------|
D|--1--3/5--------------------------5--|--3p1p0------------------|
A|-------------------------------------|-----------3p1p0---------|
E|-------------------------------------|------------------1\--/--|
                                                            \/

e|---------------------------------|--------------------------|
B|---------------------------------|--------------------------|
G|---------------------------------|--3-----3--5--3--5/7---7--|
D|------------------------3--3--5--|-----5--------------------|
A|----------1-----1--3/5-----------|--------------------------|
E|--1--1h3-----3-------------------|--------------------------|

e|----------------------|-------------------------------------------|
B|----------------------|-------------------------------------------|
G|--3-----3--5--3--5/7--|--7--5--3--5--7--5--7--8--7--8--10--8--10--|
D|-----5----------------|-------------------------------------------|
A|----------------------|-------------------------------------------|
E|----------------------|-------------------------------------------|

Guitar II Harmony
e|----------------------|-------------------------------------------|
B|-------------------6--|--6--4--3--4--6--4--6--8--6--8--10--8--10--|
G|----------------------|-------------------------------------------|
D|----------------------|-------------------------------------------|
A|----------------------|-------------------------------------------|
E|----------------------|-------------------------------------------|

Guitar I
e|------------------------------|
B|--------------------------13--|
G|--12--10--12--14--12--14------|
D|------------------------------|
A|------------------------------|
E|------------------------------|

Guitar II Harmony
e|--8--------8--10--8--10---13--|
B|-----10-----------------------|
G|------------------------------|
D|------------------------------|
A|------------------------------|
E|------------------------------|

Guitar I Solo
e|------------------|-------------------------|---------------|
B|--8--8~~~------8--|-------------------11br--|--8------8--8--|
G|------------10----|--7\5--3--5--5--3--------|-----10--------|
D|------------------|-------------------------|---------------|
A|------------------|-------------------------|---------------|
E|------------------|-------------------------|---------------|

Guitar I
e|-----------------------------------|--3--3------3-----|
B|-----------------------------------|--------6b-----3--|
G|--7p5h7--9p7h9--10p9h10--12p10h12--|------------------|
D|-----------------------------------|------------------|
A|-----------------------------------|------------------|
E|-----------------------------------|------------------|

Guitar II Harmony
e|-----------------------------------|-------------------|
B|--6p4h6--8p6h8--10p8h10--11p10h11--|-------------------|
G|-----------------------------------|-------------------|
D|-----------------------------------|-------------------|
A|-----------------------------------|-------------------|
E|-----------------------------------|-------------------|

Guitar I
e|---------------------------------|-----------------------------------|
B|--6p3-----3p1--------------------|-----------------------------------|
G|-------5-------3--3qb--3qb-------|--3qb--3qb-------3qb--3qb----------|
D|----------------------------5p0--|------------5p0------------5p0--0--|
A|---------------------------------|-----------------------------------|
E|---------------------------------|-----------------------------------|

Guitar I
e|------------------------------------|-------------------|---------------|
B|--3--5--3-----3---------------------|-------------------|---------------|
G|-----------5-----5--3--5--3---------|--2h4---0--2--4/5--|--2--4----5/9--|
D|-----------------------------5p3p0--|-------------------|---------------|
A|------------------------------------|-------------------|---------------|
E|------------------------------------|-------------------|---------------|

Guitar II Harmony
e|------------------------------------|-------------------|---------------|
B|------------------------------------|--6h8--5--6--8/10--|--6--8--10/13--|
G|------------------------------------|-------------------|---------------|
D|------------------------------------|-------------------|---------------|
A|------------------------------------|-------------------|---------------|
E|------------------------------------|-------------------|---------------|

Guitar I
e|--------------|------3--6p3-----------------------|-------------------|
B|--------------|--6b----------6--3-----------------|-------------------|
G|--9---7---9---|--------------------5p3------------|--2h4--0--2--4/5---|
D|--------------|-------------------------5--5p3p0--|-------------------|
A|--------------|-----------------------------------|-------------------|
E|--------------|-----------------------------------|-------------------|

Guitar II Harmony
e|--------------|-----------------------------------|-------------------|
B|--13--11--13--|-----------------------------------|--6h8--5--6--8/10--|
G|--------------|-----------------------------------|-------------------|
D|--------------|-----------------------------------|-------------------|
A|--------------|-----------------------------------|-------------------|
E|--------------|-----------------------------------|-------------------|

Guitar I
e|-------------|-------------|------3-------------------------------|
B|-------------|-------------|--6b-----3--6p3-----------------------|
G|--2--4--5/9--|--7--5--7/9--|-----------------5--3--5-----3--------|
D|-------------|-------------|--------------------------5-----5-----|
A|-------------|-------------|-----------------------------------5--|
E|-------------|-------------|--------------------------------------|


Guitar II Harmony
e|---------------|------------------|
B|--6--8--10/13--|--11------11--13--|
G|---------------|------12----------|
D|---------------|------------------|
A|---------------|------------------|
E|---------------|------------------|

Guitar I
e|------------------------------------|----------------------|
B|------------------------------------|--8--8-------8-----8--|
G|--------3---------------------------|--------5/9-----9-----|
D|--5--5-----5--3---------------------|----------------------|
A|-----------------5--5p3--1--3p1-----|----------------------|
E|---------------------------------3--|----------------------|

e|----------------------------------|--10b--10--9--8-------------|
B|--10br--8--10br--8~~~-------8-----|-----------------11--10--8--|
G|-----------------------5/9-----9--|----------------------------|
D|----------------------------------|----------------------------|
A|----------------------------------|----------------------------|
E|----------------------------------|----------------------------|

e|------------------------------|------------15-----------|
B|--10-----8--8--10b--10b--10b--|--8-------------18--18b--|
G|------9-----------------------|-----12/16---------------|
D|------------------------------|-------------------------|
A|------------------------------|-------------------------|
E|------------------------------|-------------------------|

e|--15-----------------------------|-----15----------------------------------|
B|------18--15---------------------|---------18p15---------------------------|
G|--------------17p15------15------|-17b------------17--17br--17p15----15----|
D|---------------------17------17--|--------------------------------17----17-|
A|---------------------------------|-----------------------------------------|
E|---------------------------------|-----------------------------------------|

Guitar I
e|--------------------------------------------------|
B|--18------15--------------18------15--------------|
G|------17------15--------------17------15--17------|
D|------------------17--------------------------17--|
A|----------------------17--------------------------|
E|--------------------------------------------------|

Guitar II Harmony
e|--------------------------------------------------|
B|--------------------------------------------------|
G|--17--17--15--17------15------15--17------15------|
D|------------------17------15----------17------15--|
A|--------------------------------------------------|
E|--------------------------------------------------|

Guitar I
e|--------------------------13---13---13---15---|-------------------|
B|--18------15--------------16b--16b--16b--18b--|-------------------|
G|------17------15--17--------------------------|-------------------|
D|----------------------17----------------------|-------------------|
A|----------------------------------------------|-------------------|
E|----------------------------------------------|-------------------|

Guitar II Harmony
e|----------------------------------------------|
B|----------------------------------------------|
G|--17--15--17------15--------------------------|
D|--------------17------15----------------------|
A|----------------------------------------------|
E|----------------------------------------------|

Outro Guitar I
e|--------------|-------------------|----------------------|-----------------|
B|--------------|-------------------|----------------------|-----------------|
G|--------------|-------------------|------0--4---7--------|-----------------|
D|--------------|-------------------|----------------------|-----------------|
A|--------------|-------------------|----------------------|-----------------|
E|--------------|-------------------|----------------------|-----------------|

				                        	      Fade Out
e|--------------|--------------|--------------|----------------|-------------|
B|--------------|--------------|--------------|----------------|-------------|
G|--------------|--------------|--------------|--0--4---7------|-------------|
D|--------------|--------------|--------------|----------------|-------------|
A|--------------|--------------|--------------|----------------|-------------|
E|--------------|--------------|--------------|----------------|-------------|

_____________________________________________________________________________


Main Rhythm Guitar (Blues overdrive)
Repeat this section through Intro and main Theme let all notes ring

Rhythm I
e|--3--------3--------3--------3--------|
B|-----3--------3--------3--------3-----|
G|--------0--------0--------0--------0--|
D|--------------------------------------|
A|--------------------------------------|
E|--------------------------------------|

e|--1--------1--------1--------1--------|
B|-----3--------3--------3--------3-----|
G|--------0--------0--------0--------0--|
D|--------------------------------------|
A|--------------------------------------|
E|--------------------------------------|

Transition between main themes



Rhythm II
e|--0--0--0--0--0--0--|--0--0--0--0--0--0--|--------------|--------------|
B|--1--1--1--1--1--1--|--1--1--1--1--1--1--|--------------|--------------|
G|--2--2--2--2--2--2--|--0--0--0--0--0--0--|--------------|--------------|
D|--2--2--2--2--2--2--|--2--2--2--2--2--2--|--5--5--3--5--|--5--5--3--5--|
A|--0--0--0--0--0--0--|--3--3--3--3--3--3--|--5--5--3--5--|--5--5--3--5--|
E|--------------------|--------------------|--3--3--1--3--|--3--3--1--3--|

e|--0--0--0--0--0--0--|--0--0--0--0--0--0--|--------------|
B|--1--1--1--1--1--1--|--1--1--1--1--1--1--|--------------|
G|--2--2--2--2--2--2--|--0--0--0--0--0--0--|--------------|
D|--2--2--2--2--2--2--|--2--2--2--2--2--2--|--5--5--3--5--|
A|--0--0--0--0--0--0--|--3--3--3--3--3--3--|--5--5--3--5--|
E|--------------------|--------------------|--3--3--1--3--|

e|--1--1--1--1--1--1--1--1--1--1--1--1--|
B|--1--1--1--1--1--1--1--1--1--1--1--1--|
G|--2--2--2--2--2--2--2--2--2--2--2--2--|
D|--3--3--3--3--3--3--3--3--3--3--3--3--|
A|--3--3--3--3--3--3--3--3--3--3--3--3--|
E|--1--1--1--1--1--1--1--1--1--1--1--1--|

Back to Rhythm I then to Rhythm III for first bridge

Rhythm III 1st Bridge
e|--1--1--1--1--1--1--1--1--1--1--1--1--|
B|--1--1--1--1--1--1--1--1--1--1--1--1--|
G|--2--2--2--2--2--2--2--2--2--2--2--2--|
D|--3--3--3--3--3--3--3--3--3--3--3--3--|
A|--3--3--3--3--3--3--3--3--3--3--3--3--|
E|--1--1--1--1--1--1--1--1--1--1--1--1--|

Let all notes ring except A
e|--3--------3--------3--------3--------|--1-------------------------------|
B|-----3--------3--------3--------3-----|-----3----------1-----1-----------|
G|--------0--------0--------0--------0--|--------0--2h3-----3-----3--2--0--|
D|--------------------------------------|----------------------------------|
A|--------------------------------------|----------------------------------|
E|--------------------------------------|----------------------------------|

e|--3--------3--------3--------3--------|--1-------------------------------|
B|-----3--------3--------3--------3-----|-----3----------1-----1-----------|
G|--------0--------0--------0--------0--|--------0--2h3-----3-----3--2--0--|
D|--------------------------------------|----------------------------------|
A|--------------------------------------|----------------------------------|
E|--------------------------------------|----------------------------------|

e|--3--------3--------3--------3--------|--1-------------------------------|
B|-----3--------3--------3--------3-----|-----3----------1-----1-----------|
G|--------0--------0--------0--------0--|--------0--2h3-----3-----3--2--0--|
D|--------------------------------------|----------------------------------|
A|--------------------------------------|----------------------------------|
E|--------------------------------------|----------------------------------|

e|--3--------3--------3--------3--------|--1-----1-----1-----1--|
B|-----3--------3--------3--------3-----|--1-----1-----1-----1--|
G|--------0--------0--------0--------0--|--0-----0-----0-----0--|
D|--------------------------------------|-----------------------|
A|--------------------------------------|-----------------------|
E|--------------------------------------|-----------------------|

2nd Theme
e|-----------------|-----------------|-----------------|
B|-----------------|-----------------|-----------------|
G|--3---3----------|-----------------|--3---3----------|
D|--3---3---3---3--|-----------------|--3---3---5---5--|
A|--1---1---3---3--|--5---5---5---5--|--1---1---5---5--|
E|----------1---1--|--3---3---3---3--|----------3---3--|

e|-----------------|-----------------|-----------------|
B|-----------------|-----------------|-----------------|
G|-----------------|-----------------|--3---3---3---3--|
D|--3---3---3---3--|--5---5---3---3--|--3---3---3---3--|
A|--3---3---3---3--|--5---5---3---3--|--1---1---1---1--|
E|--1---1---1---1--|--3---3---1---1--|-----------------|

e|-----------------|-------------------|
B|-----------------|-------------------|
G|--5---5---5---5--|-------------------|
D|--5---5---5---5--|--3----3---3----3--|
A|--3---3---3---3--|--3----3---3----3--|
E|-----------------|--1----1---1----1--|

Back to Rhythm I then Rhythm II

Rhythm II
e|--0--0--0--0--0--0--|--0--0--0--0--0--0--|--------------|--------------|
B|--1--1--1--1--1--1--|--1--1--1--1--1--1--|--------------|--------------|
G|--2--2--2--2--2--2--|--0--0--0--0--0--0--|--------------|--------------|
D|--2--2--2--2--2--2--|--2--2--2--2--2--2--|--5--5--3--5--|--5--5--3--5--|
A|--0--0--0--0--0--0--|--3--3--3--3--3--3--|--5--5--3--5--|--5--5--3--5--|
E|--------------------|--------------------|--3--3--1--3--|--3--3--1--3--|

e|--0--0--0--0--0--0--|--0--0--0--0--0--0--|
B|--1--1--1--1--1--1--|--1--1--1--1--1--1--|
G|--2--2--2--2--2--2--|--0--0--0--0--0--0--|
D|--2--2--2--2--2--2--|--2--2--2--2--2--2--|
A|--0--0--0--0--0--0--|--3--3--3--3--3--3--|
E|--------------------|--------------------|

2nd Bridge (Acoustic Guitar)
e|--7--7--7--5--5--5--3--3--3--2--2--2--|-0--0--0--0--0--0--0--0--0--0--0--0-|
B|--7--7--7--5--5--5--3--3--3--3--3--3--|-1--1--1--1--1--1--1--1--1--1--1--1-|
G|--8--8--8--6--6--6--4--4--4--2--2--2--|-2--2--2--2--2--2--2--2--2--2--2--2-|
D|--9--9--9--7--7--7--5--5--5--0--0--0--|-2--2--2--2--2--2--2--2--2--2--2--2-|
A|--9--9--9--7--7--7--5--5--5-----------|-0--0--0--0--0--0--0--0--0--0--0--0-|
E|--------------------------------------|------------------------------------|

e|--7--7--7--5--5--5--3--3--3--2--2--2--|-0--0--0--0--0--0--0--0--0--0--0--0-|
B|--7--7--7--5--5--5--3--3--3--3--3--3--|-1--1--1--1--1--1--1--1--1--1--1--1-|
G|--8--8--8--6--6--6--4--4--4--2--2--2--|-2--2--2--2--2--2--2--2--2--2--2--2-|
D|--9--9--9--7--7--7--5--5--5--0--0--0--|-2--2--2--2--2--2--2--2--2--2--2--2-|
A|--9--9--9--7--7--7--5--5--5-----------|-0--0--0--0--0--0--0--0--0--0--0--0-|
E|--------------------------------------|------------------------------------|

e|--7--7--7--5--5--5--3--3--3--2--2--2--|-0--0--0--0--0--0--0--0--0--0--0--0-|
B|--7--7--7--5--5--5--3--3--3--3--3--3--|-1--1--1--1--1--1--1--1--1--1--1--1-|
G|--8--8--8--6--6--6--4--4--4--2--2--2--|-2--2--2--2--2--2--2--2--2--2--2--2-|
D|--9--9--9--7--7--7--5--5--5--0--0--0--|-2--2--2--2--2--2--2--2--2--2--2--2-|
A|--9--9--9--7--7--7--5--5--5-----------|-0--0--0--0--0--0--0--0--0--0--0--0-|
E|--------------------------------------|------------------------------------|

e|--7--7--7--5--5--5--3--3--3--2--2--2--|-0--0--0--0--0--0--0--0--0--0--0--0-|
B|--7--7--7--5--5--5--3--3--3--3--3--3--|-1--1--1--1--1--1--1--1--1--1--1--1-|
G|--8--8--8--6--6--6--4--4--4--2--2--2--|-2--2--2--2--2--2--2--2--2--2--2--2-|
D|--9--9--9--7--7--7--5--5--5--0--0--0--|-2--2--2--2--2--2--2--2--2--2--2--2-|
A|--9--9--9--7--7--7--5--5--5-----------|-0--0--0--0--0--0--0--0--0--0--0--0-|
E|--------------------------------------|------------------------------------|

Back to Rhythm I during main theme

 Transition to 2nd Theme
e|--1--1--1--1--1--1--1--1--1--1--1--1--|-1--1--1--1--1--1--1--1--1--1--1--1-|
B|--1--1--1--1--1--1--1--1--1--1--1--1--|-1--1--1--1--1--1--1--1--1--1--1--1-|
G|--2--2--2--2--2--2--2--2--2--2--2--2--|-2--2--2--2--2--2--2--2--2--2--2--2-|
D|--3--3--3--3--3--3--3--3--3--3--3--3--|-3--3--3--3--3--3--3--3--3--3--3--3-|
A|--3--3--3--3--3--3--3--3--3--3--3--3--|-3--3--3--3--3--3--3--3--3--3--3--3-|
E|--1--1--1--1--1--1--1--1--1--1--1--1--|-1--1--1--1--1--1--1--1--1--1--1--1-|

2nd Theme
e|-----------------|-----------------|-----------------|
B|-----------------|-----------------|-----------------|
G|--3---3----------|-----------------|--3---3----------|
D|--3---3---3---3--|-----------------|--3---3---5---5--|
A|--1---1---3---3--|--5---5---5---5--|--1---1---5---5--|
E|----------1---1--|--3---3---3---3--|----------3---3--|

e|-----------------|-----------------|-----------------|
B|-----------------|-----------------|-----------------|
G|-----------------|-----------------|--3---3---3---3--|
D|--3---3---3---3--|--5---5---3---3--|--3---3---3---3--|
A|--3---3---3---3--|--5---5---3---3--|--1---1---1---1--|
E|--1---1---1---1--|--3---3---1---1--|-----------------|

e|-----------------|-------------------|
B|-----------------|-------------------|
G|--5---5---5---5--|-------------------|
D|--5---5---5---5--|--3----3---3----3--|
A|--3---3---3---3--|--3----3---3----3--|
E|-----------------|--1----1---1----1--|

Solo
e|-----------------|-----------------|-----------------|-----------------|
B|-----------------|-----------------|-----------------|-----------------|
G|--4---4---4---4--|--2---2---2---2--|--5---5---5---5--|--2---2---2---2--|
D|--5---5---5---5--|--3---3---3---3--|--5---5---5---5--|--3---3---3---3--|
A|--5---5---5---5--|--3---3---3---3--|--3---3---3---3--|--3---3---3---3--|
E|--3---3---3---3--|--1---1---1---1--|-----------------|--1---1---1---1--|

e|-----------------|-----------------|-----------------|-----------------|
B|-----------------|-----------------|-----------------|-----------------|
G|--4---4---4---4--|--2---2---2---2--|--5---5---5---5--|--2---2---2---2--|
D|--5---5---5---5--|--3---3---3---3--|--5---5---5---5--|--3---3---3---3--|
A|--5---5---5---5--|--3---3---3---3--|--3---3---3---3--|--3---3---3---3--|
E|--3---3---3---3--|--1---1---1---1--|-----------------|--1---1---1---1--|

e|-----------------|-----------------|-----------------|-----------------|
B|-----------------|-----------------|-----------------|-----------------|
G|--4---4---4---4--|--2---2---2---2--|--5---5---5---5--|--2---2---2---2--|
D|--5---5---5---5--|--3---3---3---3--|--5---5---5---5--|--3---3---3---3--|
A|--5---5---5---5--|--3---3---3---3--|--3---3---3---3--|--3---3---3---3--|
E|--3---3---3---3--|--1---1---1---1--|-----------------|--1---1---1---1--|

e|-----------------|-----------------|-----------------|-----------------|
B|-----------------|-----------------|-----------------|-----------------|
G|--4---4---4---4--|--2---2---2---2--|--5---5---5---5--|--2---2---2---2--|
D|--5---5---5---5--|--3---3---3---3--|--5---5---5---5--|--3---3---3---3--|
A|--5---5---5---5--|--3---3---3---3--|--3---3---3---3--|--3---3---3---3--|
E|--3---3---3---3--|--1---1---1---1--|-----------------|--1---1---1---1--|

e|-----------------------------------|
B|-----------------------------------|
G|--2---2---2---2-----2---2---2---2--|
D|--3---3---3---3-----3---3---3---3--|
A|--3---3---3---3-----3---3---3---3--|
E|--1---1---1---1-----1---1---1---1--|

e|--1--1--1--1--1--1--1--1--1--1--1--1--|
B|--1--1--1--1--1--1--1--1--1--1--1--1--|
G|--2--2--2--2--2--2--2--2--2--2--2--2--|
D|--3--3--3--3--3--3--3--3--3--3--3--3--|
A|--3--3--3--3--3--3--3--3--3--3--3--3--|
E|--1--1--1--1--1--1--1--1--1--1--1--1--|

e|-----------------|-----------------|-----------------|-----------------|
B|-----------------|-----------------|-----------------|-----------------|
G|--4---4---4---4--|--2---2---2---2--|--5---5---5---5--|--2---2---2---2--|
D|--5---5---5---5--|--3---3---3---3--|--5---5---5---5--|--3---3---3---3--|
A|--5---5---5---5--|--3---3---3---3--|--3---3---3---3--|--3---3---3---3--|
E|--3---3---3---3--|--1---1---1---1--|-----------------|--1---1---1---1--|

e|-----------------|-----------------|-----------------|-----------------|
B|-----------------|-----------------|-----------------|-----------------|
G|--4---4---4---4--|--2---2---2---2--|--5---5---5---5--|--2---2---2---2--|
D|--5---5---5---5--|--3---3---3---3--|--5---5---5---5--|--3---3---3---3--|
A|--5---5---5---5--|--3---3---3---3--|--3---3---3---3--|--3---3---3---3--|
E|--3---3---3---3--|--1---1---1---1--|-----------------|--1---1---1---1--|

e|-----------------------|
B|-----------------------|
G|--2---2---2---2-----2--|
D|--3---3---3---3-----3--|
A|--3---3---3---3-----3--|
E|--1---1---1---1-----1--|

Outro Repeat till fade out let all notes ring
e|-3-----3-----3-----3-----3-----3-----|-3-----3-----3-----3-----1-----1-----|
B|-------------------------------------|-------------------------------------|
G|----0-----0-----0-----0-----0-----0--|----0-----0-----0-----0-----0-----0--|
D|-------------------------------------|-------------------------------------|
A|-------------------------------------|-------------------------------------|
E|-------------------------------------|-------------------------------------|

2nd Rhythm Guitar (Acoustic)
Main Theme repeat pattern
e|--3--3--3--3--3--3--3--3--|--1--1--1--1--1--1--1--1--|
B|--3--3--3--3--3--3--3--3--|--1--1--1--1--1--1--1--1--|
G|--0--0--0--0--0--0--0--0--|--2--2--2--2--2--2--2--2--|
D|--0--0--0--0--0--0--0--0--|--3--3--3--3--3--3--3--3--|
A|--2--2--2--2--2--2--2--2--|--3--3--3--3--3--3--3--3--|
E|--3--3--3--3--3--3--3--3--|--1--1--1--1--1--1--1--1--|

e|--0--0--0--0--0--0--0--0--|--1--1--1--1--1--1--1--1--|
B|--1--1--1--1--1--1--1--1--|--1--1--1--1--1--1--1--1--|
G|--0--0--0--0--0--0--0--0--|--2--2--2--2--2--2--2--2--|
D|--2--2--2--2--2--2--2--2--|--3--3--3--3--3--3--3--3--|
A|--3--3--3--3--3--3--3--3--|--3--3--3--3--3--3--3--3--|
E|--------------------------|--1--1--1--1--1--1--1--1--|

2nd Transition between main theme
e|--0--0--0--0--0--0--|--0--0--0--0--0--0--|--3--3--3--3--3--3--|
B|--1--1--1--1--1--1--|--1--1--1--1--1--1--|--3--3--3--3--3--3--|
G|--2--2--2--2--2--2--|--0--0--0--0--0--0--|--0--0--0--0--0--0--|
D|--2--2--2--2--2--2--|--2--2--2--2--2--2--|--0--0--0--0--0--0--|
A|--0--0--0--0--0--0--|--3--3--3--3--3--3--|--2--2--2--2--2--2--|
E|--------------------|--------------------|--3--3--3--3--3--3--|

e|--3--3--3--3--3--3--|--0--0--0--0--0--0--|--0--0--0--0--0--0--|
B|--3--3--3--3--3--3--|--1--1--1--1--1--1--|--1--1--1--1--1--1--|
G|--0--0--0--0--0--0--|--2--2--2--2--2--2--|--0--0--0--0--0--0--|
D|--0--0--0--0--0--0--|--2--2--2--2--2--2--|--2--2--2--2--2--2--|
A|--2--2--2--2--2--2--|--0--0--0--0--0--0--|--3--3--3--3--3--3--|
E|--3--3--3--3--3--3--|--------------------|--------------------|

e|--3--3--3--3--3--3--|--1--1--1--1--1--1--1--1--3--3--3--3--|
B|--3--3--3--3--3--3--|--1--1--1--1--1--1--1--1--3--3--3--3--|
G|--0--0--0--0--0--0--|--2--2--2--2--2--2--2--2--3--3--3--3--|
D|--0--0--0--0--0--0--|--3--3--3--3--3--3--3--3--3--3--3--3--|
A|--2--2--2--2--2--2--|--3--3--3--3--3--3--3--3--3--3--3--3--|
E|--3--3--3--3--3--3--|--1--1--1--1--1--1--1--1--1--1--1--1--|

Back To Main Theme Rhythm

1st Bridge
e|--3----1--3--1-----1--|--0----1--3--1-----1--|--0----1--3--1-----1--0--|
B|--0----1--0--3-----3--|--1----1--0--1-----3--|--1----1--0--3-----3--1--|
G|--0----2--0--3-----3--|--0----2--0--2-----3--|--0----2--0--3-----3--0--|
D|--0----3--0--3-----3--|--2----3--0--3-----3--|--2----3--0--3-----3--2--|
A|--2----3--2--1-----1--|--3----3--2--3-----1--|--3----3--2--1-----1--3--|
E|--3----1--3-----------|-------1--3--1--------|-------1--3--------------|

2nd Theme
e|-----------------|-----------------|-----------------|
B|-----------------|-----------------|-----------------|
G|--3---3----------|-----------------|--3---3----------|
D|--3---3---3---3--|-----------------|--3---3---5---5--|
A|--1---1---3---3--|--5---5---5---5--|--1---1---5---5--|
E|----------1---1--|--3---3---3---3--|----------3---3--|

e|-----------------|-----------------|-----------------|
B|-----------------|-----------------|-----------------|
G|-----------------|-----------------|--3---3---3---3--|
D|--3---3---3---3--|--5---5---3---3--|--3---3---3---3--|
A|--3---3---3---3--|--5---5---3---3--|--1---1---1---1--|
E|--1---1---1---1--|--3---3---1---1--|-----------------|

e|--0---0---0------|-------------------|
B|--1---1---1---1--|-------------------|
G|--0---0---0---0--|-------------------|
D|--2---2---2---2--|--3----3---3----3--|
A|--3---3---3---3--|--3----3---3----3--|
E|-----------------|--1----1---1----1--|

Repeat through first part of main theme
e|--3--3--3--3--3--3--3--3--|--1--1--1--1--1--1--1--1--|
B|--3--3--3--3--3--3--3--3--|--1--1--1--1--1--1--1--1--|
G|--0--0--0--0--0--0--0--0--|--2--2--2--2--2--2--2--2--|
D|--0--0--0--0--0--0--0--0--|--3--3--3--3--3--3--3--3--|
A|--2--2--2--2--2--2--2--2--|--3--3--3--3--3--3--3--3--|
E|--3--3--3--3--3--3--3--3--|--1--1--1--1--1--1--1--1--|

Second part of main theme leading into 2nd bridge

e|--0--0--0--0--0--0--|--0--0--0--0--0--0--|--3--3--3--3--3--3--|
B|--1--1--1--1--1--1--|--1--1--1--1--1--1--|--3--3--3--3--3--3--|
G|--2--2--2--2--2--2--|--0--0--0--0--0--0--|--0--0--0--0--0--0--|
D|--2--2--2--2--2--2--|--2--2--2--2--2--2--|--0--0--0--0--0--0--|
A|--0--0--0--0--0--0--|--3--3--3--3--3--3--|--2--2--2--2--2--2--|
E|--------------------|--------------------|--3--3--3--3--3--3--|

e|--3--3--3--3--3--3--|--0--0--0--0--0--0--|--0--0--0--0--0--0--|
B|--3--3--3--3--3--3--|--1--1--1--1--1--1--|--1--1--1--1--1--1--|
G|--0--0--0--0--0--0--|--2--2--2--2--2--2--|--0--0--0--0--0--0--|
D|--0--0--0--0--0--0--|--2--2--2--2--2--2--|--2--2--2--2--2--2--|
A|--2--2--2--2--2--2--|--0--0--0--0--0--0--|--3--3--3--3--3--3--|
E|--3--3--3--3--3--3--|--------------------|--------------------|

2nd Bridge
e|--3--3--3--2--2--2--3--3--3--3--3--3--|----0----0----0----0--|
B|--3--3--3--3--3--3--3--3--3--3--3--3--|----1----1----1----1--|
G|--0--0--0--2--2--2--0--0--0--0--0--0--|----2----2----2----2--|
D|--0--0--0-----------2--2--2--0--0--0--|----2----2----2----2--|
A|--2--2--2-----------3--3--3--2--2--2--|----0----0----0----0--|
E|--3--3--3-----------------------------|----------------------|

e|--3--3--3--2--2--2--3--3--3--3--3--3--|----0----0----0----0--|
B|--3--3--3--3--3--3--3--3--3--3--3--3--|----1----1----1----1--|
G|--0--0--0--2--2--2--0--0--0--0--0--0--|----2----2----2----2--|
D|--0--0--0-----------2--2--2--0--0--0--|----2----2----2----2--|
A|--2--2--2-----------3--3--3--2--2--2--|----0----0----0----0--|
E|--3--3--3-----------------------------|----------------------|

e|--3--3--3--2--2--2--3--3--3--3--3--3--|----0----0----0----0--|
B|--3--3--3--3--3--3--3--3--3--3--3--3--|----1----1----1----1--|
G|--0--0--0--2--2--2--0--0--0--0--0--0--|----2----2----2----2--|
D|--0--0--0-----------2--2--2--0--0--0--|----2----2----2----2--|
A|--2--2--2-----------3--3--3--2--2--2--|----0----0----0----0--|
E|--3--3--3-----------------------------|----------------------|

e|--3--3--3--2--2--2--3--3--3--3--3--3--|----0----0----0--0--0--0--0--0----3-|
B|--3--3--3--3--3--3--3--3--3--3--3--3--|----1----1----1--1--1--1--1--1----3-|
G|--0--0--0--2--2--2--0--0--0--0--0--0--|----2----2----2--2--2--2--2--2----0-|
D|--0--0--0-----------2--2--2--0--0--0--|----2----2----2--2--2--2--2--2----0-|
A|--2--2--2-----------3--3--3--2--2--2--|----0----0----0--0--0--0--0--0----2-|
E|--3--3--3-----------------------------|----------------------------------3-|

e|--1--1--1--1--1--1--1--1--1--1--1--1--|--3-----3--0--|
B|--1--1--1--1--1--1--1--1--1--1--1--1--|--3-----3--1--|
G|--2--2--2--2--2--2--2--2--2--2--2--2--|--0-----0--0--|
D|--3--3--3--3--3--3--3--3--3--3--3--3--|--0-----0--2--|
A|--3--3--3--3--3--3--3--3--3--3--3--3--|--2-----2--3--|
E|--1--1--1--1--1--1--1--1--1--1--1--1--|--3-----3-----|

Transition to second theme
e|--1--1--1--1--1--1--1--1--1--1--1--1--|-1--1--1--1--1--1--1--1--1--1--1--1-|
B|--1--1--1--1--1--1--1--1--1--1--1--1--|-1--1--1--1--1--1--1--1--1--1--1--1-|
G|--2--2--2--2--2--2--2--2--2--2--2--2--|-2--2--2--2--2--2--2--2--2--2--2--2-|
D|--3--3--3--3--3--3--3--3--3--3--3--3--|-3--3--3--3--3--3--3--3--3--3--3--3-|
A|--3--3--3--3--3--3--3--3--3--3--3--3--|-3--3--3--3--3--3--3--3--3--3--3--3-|
E|--1--1--1--1--1--1--1--1--1--1--1--1--|-1--1--1--1--1--1--1--1--1--1--1--1-|

2nd Theme
e|-----------------|-----------------|-----------------|
B|-----------------|-----------------|-----------------|
G|--3---3----------|-----------------|--3---3----------|
D|--3---3---3---3--|-----------------|--3---3---5---5--|
A|--1---1---3---3--|--5---5---5---5--|--1---1---5---5--|
E|----------1---1--|--3---3---3---3--|----------3---3--|

e|-----------------|-----------------|-----------------|
B|-----------------|-----------------|-----------------|
G|-----------------|-----------------|--3---3---3---3--|
D|--3---3---3---3--|--5---5---3---3--|--3---3---3---3--|
A|--3---3---3---3--|--5---5---3---3--|--1---1---1---1--|
E|--1---1---1---1--|--3---3---1---1--|-----------------|

e|--0---0---0---0--|-------------------|
B|--1---1---1---1--|-------------------|
G|--0---0---0---0--|-------------------|
D|--2---2---2---2--|--3----3---3----3--|
A|--3---3---3---3--|--3----3---3----3--|
E|-----------------|--1----1---1----1--|

Solo
e|--3--3--3--3--3--|--1--1--1--1--1--|--0--0--0--0--0--|--1--1--1--1--1--|
B|--3--3--3--3--3--|--1--1--1--1--1--|--1--1--1--1--1--|--1--1--1--1--1--|
G|--0--0--0--0--0--|--2--2--2--2--2--|--0--0--0--0--0--|--2--2--2--2--2--|
D|--0--0--0--0--0--|--3--3--3--3--3--|--2--2--2--2--2--|--3--3--3--3--3--|
A|--2--2--2--2--2--|--3--3--3--3--3--|--3--3--3--3--3--|--3--3--3--3--3--|
E|--3--3--3--3--3--|--1--1--1--1--1--|-----------------|--1--1--1--1--1--|

e|--3--3--3--3--3--|--1--1--1--1--1--|--0--0--0--0--0--|--1--1--1--1--1--|
B|--3--3--3--3--3--|--1--1--1--1--1--|--1--1--1--1--1--|--1--1--1--1--1--|
G|--0--0--0--0--0--|--2--2--2--2--2--|--0--0--0--0--0--|--2--2--2--2--2--|
D|--0--0--0--0--0--|--3--3--3--3--3--|--2--2--2--2--2--|--3--3--3--3--3--|
A|--2--2--2--2--2--|--3--3--3--3--3--|--3--3--3--3--3--|--3--3--3--3--3--|
E|--3--3--3--3--3--|--1--1--1--1--1--|-----------------|--1--1--1--1--1--|

e|--3--3--3--3--3--|--1--1--1--1--1--|--0--0--0--0--0--|--1--1--1--1--1--|
B|--3--3--3--3--3--|--1--1--1--1--1--|--1--1--1--1--1--|--1--1--1--1--1--|
G|--0--0--0--0--0--|--2--2--2--2--2--|--0--0--0--0--0--|--2--2--2--2--2--|
D|--0--0--0--0--0--|--3--3--3--3--3--|--2--2--2--2--2--|--3--3--3--3--3--|
A|--2--2--2--2--2--|--3--3--3--3--3--|--3--3--3--3--3--|--3--3--3--3--3--|
E|--3--3--3--3--3--|--1--1--1--1--1--|-----------------|--1--1--1--1--1--|

e|--3--3--3--3--3--|--1--1--1--1--1--|--0--0--0--0--0--|
B|--3--3--3--3--3--|--1--1--1--1--1--|--1--1--1--1--1--|
G|--0--0--0--0--0--|--2--2--2--2--2--|--0--0--0--0--0--|
D|--0--0--0--0--0--|--3--3--3--3--3--|--2--2--2--2--2--|
A|--2--2--2--2--2--|--3--3--3--3--3--|--3--3--3--3--3--|
E|--3--3--3--3--3--|--1--1--1--1--1--|-----------------|

e|--1---1---1---1-----1---1---1---1--|
B|--1---1---1---1-----1---1---1---1--|
G|--2---2---2---2-----2---2---2---2--|
D|--3---3---3---3-----3---3---3---3--|
A|--3---3---3---3-----3---3---3---3--|
E|--1---1---1---1-----1---1---1---1--|

e|--1--1--1--1--1--1--1--1--1--1--1--1--|
B|--1--1--1--1--1--1--1--1--1--1--1--1--|
G|--2--2--2--2--2--2--2--2--2--2--2--2--|
D|--3--3--3--3--3--3--3--3--3--3--3--3--|
A|--3--3--3--3--3--3--3--3--3--3--3--3--|
E|--1--1--1--1--1--1--1--1--1--1--1--1--|

e|--3--3--3--3--3--|--1--1--1--1--1--|--0--0--0--0--0--|--1--1--1--1--1--|
B|--3--3--3--3--3--|--1--1--1--1--1--|--1--1--1--1--1--|--1--1--1--1--1--|
G|--0--0--0--0--0--|--2--2--2--2--2--|--0--0--0--0--0--|--2--2--2--2--2--|
D|--0--0--0--0--0--|--3--3--3--3--3--|--2--2--2--2--2--|--3--3--3--3--3--|
A|--2--2--2--2--2--|--3--3--3--3--3--|--3--3--3--3--3--|--3--3--3--3--3--|
E|--3--3--3--3--3--|--1--1--1--1--1--|-----------------|--1--1--1--1--1--|

e|--3--3--3--3--3--|--1--1--1--1--1--|--0--0--0--0--0--|--1--1--1--1--1--|
B|--3--3--3--3--3--|--1--1--1--1--1--|--1--1--1--1--1--|--1--1--1--1--1--|
G|--0--0--0--0--0--|--2--2--2--2--2--|--0--0--0--0--0--|--2--2--2--2--2--|
D|--0--0--0--0--0--|--3--3--3--3--3--|--2--2--2--2--2--|--3--3--3--3--3--|
A|--2--2--2--2--2--|--3--3--3--3--3--|--3--3--3--3--3--|--3--3--3--3--3--|
E|--3--3--3--3--3--|--1--1--1--1--1--|-----------------|--1--1--1--1--1--|

e|--1--1--1--1--1--3--|-----------------|--3--------------|-----------------|
B|--1--1--1--1--1--3--|-----------------|--3--------------|-----------------|
G|--2--2--2--2--2--4--|-----------------|--0--------------|-----------------|
D|--3--3--3--3--3--5--|-----------------|--0--------------|-----------------|
A|--3--3--3--3--3--5--|-----------------|--2--------------|-----------------|
E|--1--1--1--1--1--3--|-----------------|--3--------------|-----------------|

e|--------------------|--3--------------|-----------------|--3--------------|
B|--------------------|--3--------------|-----------------|--3--------------|
G|--------------------|--0--------------|-----------------|--0--------------|
D|--------------------|--0--------------|-----------------|--0--------------|
A|--------------------|--2--------------|-----------------|--2--------------|
E|--------------------|--3--------------|-----------------|--3--------------|

Outro play till fade out
e|--3--3--3--3--3--3--|
B|--3--3--3--3--3--3--|
G|--0--0--0--0--0--0--|
D|--0--0--0--0--0--0--|
A|--2--2--2--2--2--2--|
E|--3--3--3--3--3--3--|

************************************

| /   slide up
| \   slide down
| h   hammer-on
| p   pull-off
| ~   vibrato
| +   harmonic
| x   Mute note
| b   Bend
| qb  Quarter bend
| hb  Half bend
| pb  Pre-bend
| br  Bend release
| pbr Pre-bend release
| brb Bend release bend

************************************
comments
We did not receive enough feedback on this tab! Please rate:
print report bad tab
1 2 3 4 5
1 comment total.
0 reply
CinderellaFan14 wrote on June 5 2012, 04:07 pm

It's about time someone rated this perfect tab! 5 STARS!

I want to post or [tab]
guest
You may want to rate the tab now too:
select rating
Please do not post tabs as comments. Select "correction" instead!