Oops, an error
Loading. Please wait.

See Me In Your Eyes Tab

147 views 1 this week
no commentswrite comment
1 2 3 4 5
please rate
Autoscroll
+/-
esc
set tempo
stop
Contributor
Difficulty
Tuning
intermediate
D# G# C# F# A# D#
WARNING: You are trying to view
                                    content from Ultimate-Guitar.com
                                    in an unauthorized application,
                                    which is prohibited.

                                    Please use an official Ultimate
                                    Guitar Tabs application for iPhone,
                                    iPad or Android to access legitimate
                                    chords, guitar, bass, and drum tabs
                                    from Ultimate-Guitar.com database.

                                    Type "ultimate guitar tabs" in Apple
                                    App Store's or Android Market's
                                    search to find the application.
-----------------------------------------------------------------------------
                                  
             See Me In Your Eyes - 38 Special (GUITAR)
            
-----------------------------------------------------------------------------

Tabbed by: Scotto10

Tuning: Half step down

=============================================================================  

Guitar 1



                     |--3--|                                        
      E   E    E  E  S  S  S E  S  S E     E  E  E  E  E  E  E  E   
E||--/5s--3-----------------------------|--------------5-----------|
B||--/5s--3-----------------------------|--------------5-----------|
G||---------------5---------------------|-----------5--------5--7--|
D||----------5g7--5--5h-7p-5------------|--------7-----------5--7--|
A||--------------------------7-------7--|-----7-----------5--------|
E||-----------------------------5h-8----|--5-----------------------|


  H        S  S E  S  S E     E  E  E  E  E  E  E  E   
---------------------------|--------------5-----------|
---------------------------|--------------5-----------|
--L------------------------|-----------5--------5--7--|
--L-------------7----------|--------7-----------5--7--|
-----------5h-7---------7--|-----7-----------5--------|
-------------------5h-8----|--5-----------------------|


              |--3--|                                   
  H        E  S  S  S Q        E  E  E  E  E  E  E  E   
----------------------------|--------------5-----------|
----------------------8\----|--------------5-----------|
--L--------L----------7\----|-----------5--------5--7--|
--L--------L----------------|--------7-----------5--7--|
--------------5h-6h-7-------|-----7-----------5--------|
----------------------------|--5-----------------------|


  H        S  S E  E  E     E  E  E  E  E  E  E  E     W                 
-------------------------|--------------5-----------|-------------------|
-------------------------|--------------5-----------|-------------------|
--L----------------------|-----------5--------5--7--|--L----------------|
--L-------------7--------|--------7-----------5--7--|--L----------------|
-----------5h-7-------7--|-----7-----------5--------|-------------------|
-------------------8-----|--5-----------------------|-------------------|


  W                    W                                                     
-------------------|--------------------|-----|-----|-----|-----|-----|-----|
-------------------|--10----------------|-----|-----|-----|-----|-----|-----|
--L----------------|--------------------|-----|-----|-----|-----|-----|-----|
--L----------------|--------------------|-----|-----|-----|-----|-----|-----|
-------------------|--------------------|-----|-----|-----|-----|-----|-----|
-------------------|--------------------|-----|-----|-----|-----|-----|-----|


  E  E  E  E  E  E  E  E     E  E  E  E  E  E  E  E   
--------------------------|--------------------------|
--------------------------|--------------------------|
--------------------------|--------------------------|
--------------------------|--------------------------|
--7--7--7--7--7--7--7--7--|--8--8--8--8--8--8--8--8--|
--5--5--5--5--5--5--5--5--|--6--6--6--6--6--6--6--5--|


  E  E  E  E  E  E  E  E     E  E  E  Q    E  E  E     E  E  E  Q    E  E  E   
--------------------------|-------------------------|-------------------------|
--------------------------|-------------------------|-------------------------|
--------------------------|-------------------------|-------------------------|
--------------------------|-----5----------5--------|-----5----------5--7--8--|
--8--8--8--8--8--8--8-----|----------------------2--|--L-----2--3----3--5--6--|
--5--5--5--5--5--5--5--3--|--L-----3--5-------5-----|-------------------------|


  E  E  E  E  E  E  E  E     E  E  E  E  E   E  E  E   
--------------------------|---------------------------|
-----8--8--8--9--8--8--8--|--8--8--8--8--8---8--8-----|
-----8--8--8--8--8--8--8--|--8--8--8--8--8---8--8--8--|
--L--8--8--8--8--8--8--8--|--8--8--8--8--8--10--8--6--|
--L-----------------------|---------------------------|
--------------------------|---------------------------|


  E  E  E  E  E  E  E   E      E   E   E   E   E   E   E  E   
---------------------------|---------------------------------|
---------------------------|------------------------------8--|
--8--8--8--8--8--8--8--10--|---L--10--10--10--10--10--10--8--|
--6--6--6--6--6--6--6---8--|---L---8---8---8---8---8---8--8--|
---------------------------|---------------------------------|
---------------------------|---------------------------------|


  E  E  E  E  E  E  E  E     E  E  E  E  E  E  E  E   
--------------------------|--------------------------|
--L--8--8--8--7--8--8--8--|--8--8--8--8--6--8--6-----|
--L--8--8--8--8--8--8--8--|--8--8--8--8--8--8--8--8--|
--L--8--8--8--8--8--8--8--|--8--8--8--8--8--8--8--6--|
--------------------------|--------------------------|
--------------------------|--------------------------|


  E  E  E  E  E  E  E  E     E  E  E  E  E  E  E  E   
--------------------------|-----------1--1--1--1-----|
--------------------------|-----------1--1--1--1--5--|
--L--8--8--8--L--8--8--5--|--L--5--5--1--1--1--1--5--|
--L--6--6--5--L--5--5--3--|--L--3--3--1--1--1--1--5--|
--------------------------|-----------1--1--1--1--3--|
--------------------------|--------------------------|


  E  E  E  E  E  E  E  E     H        E  Q.         W                       
--------------------------|---------------------|--------------------|-----|
--L--5--5--5--5--3-----5--|--5--------5---------|--10----------------|-----|
--L--5--5--5--5--3-----5--|--5--------5---------|--------------------|-----|
--L--5--5--5--5--3-----5--|--5--------5---------|--------------------|-----|
--L--3--3--3--3--1-----3--|--3--------3---------|--------------------|-----|
--------------------------|---------------------|--------------------|-----|


                                E  E  E  E  E  E  E  E   
-----|-----|-----|-----|-----|--------------------------|
-----|-----|-----|-----|-----|--------------------------|
-----|-----|-----|-----|-----|--------------------------|
-----|-----|-----|-----|-----|--------------------------|
-----|-----|-----|-----|-----|--7--7--7--7--7--7--7--7--|
-----|-----|-----|-----|-----|--5--5--5--5--5--5--5--5--|


  E  E  E  E  E  E  E  E     E  E  E  E  E  E  E  E     E  E  E  Q    E  E  E   
--------------------------|--------------------------|-------------------------|
--------------------------|--------------------------|-------------------------|
--------------------------|--------------------------|-------------------------|
--------------------------|--------------------------|-----5----------5--------|
--8--8--8--8--8--8--8--8--|--8--8--8--8--8--8--8-----|----------------------2--|
--6--6--6--6--6--6--6--5--|--5--5--5--5--5--5--5--3--|--L-----3--5-------5-----|


  E  E  E  Q    E  E  E     E  E  E  E  E  E  E  E   
-------------------------|--------------------------|
-------------------------|-----8--8--8--9--8--8--8--|
-------------------------|-----8--8--8--8--8--8--8--|
-----5----------5--7--8--|--L--8--8--8--8--8--8--8--|
--L-----2--3----3--5--6--|--L-----------------------|
-------------------------|--------------------------|


  E  E  E  E  E   E  E  E     E  E  E  E  E  E  E   E   
---------------------------|---------------------------|
--8--8--8--8--8---8--8-----|---------------------------|
--8--8--8--8--8---8--8--8--|--8--8--8--8--8--8--8--10--|
--8--8--8--8--8--10--8--6--|--6--6--6--6--6--6--6---8--|
---------------------------|---------------------------|
---------------------------|---------------------------|


   E   E   E   E   E   E   E  E     E  E  E  E  E  E  E  E   
---------------------------------|--------------------------|
------------------------------8--|--L--8--8--8--7--8--8--8--|
---L--10--10--10--10--10--10--8--|--L--8--8--8--8--8--8--8--|
---L---8---8---8---8---8---8--8--|--L--8--8--8--8--8--8--8--|
---------------------------------|--------------------------|
---------------------------------|--------------------------|


  E  E  E  E  E  E  E  E     E  E  E  E  E  E  E  E   
--------------------------|--------------------------|
--8--8--8--8--6--8--6-----|--------------------------|
--8--8--8--8--8--8--8--8--|--L--8--8--8--L--8--8--5--|
--8--8--8--8--8--8--8--6--|--L--6--6--5--L--5--5--3--|
--------------------------|--------------------------|
--------------------------|--------------------------|


  E  E  E  Q.     E   S S    Q    Q     E  Q    E     E  E  E  Q     Q.      
-----------1--------------|------------------------|------------------------|
-----------1------------8-|--9----8----------------|------------------------|
--L--5--5--1---------10---|------------10--8----7--|--7--7--7--8----10------|
--L--3--3--1--------------|------------------------|------------------------|
-----------1--------------|------------------------|------------------------|
--------------------------|------------------------|------------------------|


  Q    Q     E  Q    E     E  E  E  Q     Q.        Q    Q     E  Q    E   
------------------------|------------------------|------------------------|
--9----8----------------|------------------------|--9----8----------------|
------------10--8----7--|--7--7--7--8----10------|------------10--8----7--|
------------------------|------------------------|------------------------|
------------------------|------------------------|------------------------|
------------------------|------------------------|------------------------|


  E  E  E  Q     Q.          Q     Q     E   Q     E     W                 
-------------------------|----------------------------|-------------------|
-------------------------|--16----15------------------|-------------------|
--7--7--7--8----10/------|--------------17--15----17--|--L----------------|
-------------------------|----------------------------|-------------------|
-------------------------|----------------------------|-------------------|
-------------------------|----------------------------|-------------------|


  Q.     Q    Q.        Q.     Q    Q.        Q.     Q    Q.      
---------------------|---------------------|---------------------|
--9------8----9------|--9------8----9------|--9------8----9------|
---------------------|---------------------|---------------------|
---------------------|---------------------|---------------------|
---------------------|---------------------|---------------------|
---------------------|---------------------|---------------------|


  Q.     Q    Q.        Q.     Q    Q.        Q.     Q    Q.      
---------------------|---------------------|---------------------|
--9------8----9------|--9------8----9------|--9------8----9------|
---------------------|---------------------|---------------------|
---------------------|---------------------|---------------------|
---------------------|---------------------|---------------------|
---------------------|---------------------|---------------------|


  W                   H        Q     Q        H         H         
-------------------|-----------------------|---------------------|
-------------------|-----------9b----9b----|--9b--------4--------|
-------------------|-----------------------|---------------------|
-------------------|-----------------------|---------------------|
--8----------------|--L--------------------|---------------------|
--6----------------|--L--------------------|---------------------|


  E  E  E  S  S  E  E  E  E     E  E  E  Q    E  E  E   
-----------------------------|-------------------------|
--4--------------------------|----------------------4--|
-----3-----------------------|-----------3-------------|
--------5--5h-6p-5--3-----6--|--L--5----------5--------|
-----------------------6-----|--------6----------6-----|
-----------------------------|-------------------------|


  E  E  E  E  S  S  S S S  S S S      Q     Q     Q     E  S S  
------------------------4p-3-----|-----------------------------|
--L--3--------6p-4p-3--------6-4-|--/11----11----11\---------8-|
--------5--3----------5----------|-------------------------8---|
---------------------------------|-----------------------------|
---------------------------------|-----------------------------|
---------------------------------|-----------------------------|


  Q.     S S Q.     E      S S S  S  S S  S  S S  S  E   E   E   
--6----------6---------|--11---8-11-11-8-11-11------------------|
-----------8--------9--|-----9-----------------9p-8-------------|
---------8-------------|----------------------------10---L\-----|
-----------------------|----------------------------------------|
-----------------------|-------------------------------------8--|
-----------------------|-------------------------------------6--|


  E  E  E  E  S  S  S S S  S S S    W                   W                 
---------------------------------|--9----------------|--L----------------|
-----------------------------8-9-|-------------------|-------------------|
--------------8p-7----7-8-10-----|-------------------|-------------------|
-----------8-------10------------|-------------------|-------------------|
--L--8--8------------------------|-------------------|-------------------|
--L--6--6------------------------|-------------------|-------------------|


  Q.     Q    Q.        Q.     Q    Q.        Q.     Q    Q.      
---------------------|---------------------|---------------------|
--9------8----9------|--9------8----9------|--9------8----9------|
---------------------|---------------------|---------------------|
---------------------|---------------------|---------------------|
---------------------|---------------------|---------------------|
---------------------|---------------------|---------------------|


  Q.     Q    Q.        H        H           H        Q    Q     
---------------------|--------------------|---------------------|
--9------8----9------|--------------------|---------------------|
---------------------|--------------------|---------------------|
---------------------|--------------------|---------------------|
---------------------|--------------------|--5--------6----8----|
---------------------|--6--------8--------|---------------------|


  H        E  S S E  E     H        E  S  S E  E     H        E  S   S  E  E   
------------------------|-------------------------|---------------------------|
------------------------|-------------------------|---------------------------|
------------------------|-------------------------|---------------------------|
------------------------|-------------------3-----|--------------------10--8--|
--6--------L------6--5--|--L--------L--3h-5----6--|--6--------L--8h-10--------|
--------------6-8-------|-------------------------|---------------------------|


  H          E  E   E  E     H         Q       E   E   
--------------------------|---------------------------|
-----------8g9--8------8--|--L--------------------11--|
-------------------10-----|-----------10pbr----8------|
--L-----------------------|---------------------------|
--------------------------|---------------------------|
--------------------------|---------------------------|


   H         E  S  S  S S  E       Q       Q       Q       E   E    
-------------------------------|-----------------------------------|
---L--------11--9p-8------11b--|---Lpb-----Lpb----11pbr----9--13b--|
---------------------10-8------|-----------------------------------|
-------------------------------|-----------------------------------|
-------------------------------|-----------------------------------|
-------------------------------|-----------------------------------|


   H           Q        E   E       W                   
--------------------------------|----------------------|
---Lpb--------13pbr----15--15b--|---Lpb----------------|
--------------------------------|----------------------|
--------------------------------|----------------------|
--------------------------------|----------------------|
--------------------------------|----------------------|


   Q.        E    E   E   E   E      Q     Q     E   E   E   E   
---------------------------------|------------------------------|
---Lpb------15b--15--13--11--13--|---L----13----13--11--13--11--|
---------------------------------|------------------------------|
---------------------------------|------------------------------|
---------------------------------|------------------------------|
---------------------------------|------------------------------|


   Q.      Q     E    E  E     H        Q     Q       Q    E  E  E  E  E  E   
----------------------------|----------------------|-------------------------|
---L------11----11br--9--8--|----------------------|-------------------------|
----------------------------|--8--------L\---------|--8----8--7--8--7--5-----|
----------------------------|----------------------|----------------------6--|
----------------------------|----------------------|-------------------------|
----------------------------|----------------------|-------------------------|


  E  E  E  Q    E  E  E      E  E  E   E   
-------------------------|----------------|
-------------------------|----------------|
-------------------------|------7--8--10--|
--L--5-----8----5--6--8--|--10------------|
--------6----------------|----------------|
-------------------------|----------------|


   S S S  S S S  S S S S  S S S  S S  S     Q    Q    E  Q    E   
-----------------------------------8-10-|--11----3---------------|
------------7-8-------------8-9-11------|-------------6--4----3--|
--10-8-7--------10-8-7-8-10-------------|------------------------|
---------10-----------------------------|------------------------|
----------------------------------------|------------------------|
----------------------------------------|------------------------|


   E  Q    Q.     E  S  S     Q    Q    E  Q    E      E  Q    Q.     E  S  S  
---L-----------------4h-6-|--11----3---------------|---L-----------------4h-6-|
---L--3----4------6-------|-------------6--4----3--|---L--3----4------6-------|
--------------------------|------------------------|--------------------------|
--------------------------|------------------------|--------------------------|
--------------------------|------------------------|--------------------------|
--------------------------|------------------------|--------------------------|


   Q    Q    E  Q    E      Q    Q     Q      Q        W                 
--11----3---------------|---L----------------11\----|-------------------|
-------------6--4----9--|---9----8s----6s-----8\----|-------------------|
------------------------|---------------------------|-------------------|
------------------------|---------------------------|--8----------------|
------------------------|---------------------------|--6----------------|
------------------------|---------------------------|-------------------|


-------||
-------||
-------||
-------||
-------||
-------||



=============================================================================  
=============================================================================  

Guitar 2



E||-------|-------|-------|-------|-------|-------|-------|-------|-------|
B||-------|-------|-------|-------|-------|-------|-------|-------|-------|
G||-------|-------|-------|-------|-------|-------|-------|-------|-------|
D||-------|-------|-------|-------|-------|-------|-------|-------|-------|
A||-------|-------|-------|-------|-------|-------|-------|-------|-------|
E||-------|-------|-------|-------|-------|-------|-------|-------|-------|


  H        E  E  Q       E  E  E  Q    E  E  E     E  E  E  Q    E  E  E   
----------------------|--------5----------------|--------5----------------|
----------------------|--------5----------------|--------5----------------|
----------------------|--------5----------------|--------5----------------|
-----------5----------|--------7----------------|--------7----------------|
-----------3-----5----|--7--7----------5-----5--|--7--7----------7-----5--|
-----------------3----|--5--5----------3-----3--|--5--5----------5-----3--|


  Q    E  Q    E  E  E     Q    E  E  E  E  E  E     E  E  E  Q    E  E  E   
-------3----------------|-------5-----------------|--------5----------------|
-------3----------------|-------5-----------------|--------5----------------|
-------4----------------|-------5-----------------|--------5----------------|
-------5-------5--------|-------7-----5-----------|--------7----------------|
--L------------3-----7--|--L----------3-----5--5--|--7--7----------5-----5--|
--L------------------5--|--L----------------3--3--|--5--5----------3-----3--|


  E  E  E  Q    E  E  E     Q    E  Q    E  E  E     E  E  E  E  E  E  E  E   
--------5----------------|-------3----------------|--------------------------|
--------5----------------|-------3----------------|--------------------------|
--------5----------------|-------4----------------|--------------------------|
--------7----------------|-------5-------5--------|--------------------------|
--7--7----------7-----5--|--L------------3-----7--|--7--7--7--7--7--7--7--7--|
--5--5----------5-----3--|--L------------------5--|--5--5--5--5--5--5--5--5--|


  E  E  E  E  E  E  E  E     E  E  E  E  E  E  E  E     E  E  E  Q    E  E  E   
--------------------------|--------------------------|-------------------------|
--------------------------|--------------------------|-------------------------|
--------------------------|--------------------------|-------------------------|
--------------------------|--------------------------|-----5----------5--------|
--8--8--8--8--8--8--8--8--|--8--8--8--8--8--8--8-----|----------------------2--|
--6--6--6--6--6--6--6--5--|--5--5--5--5--5--5--5--3--|--L-----3--5-------5-----|


  E  E  E  Q    E  E  E     E  E  E  E  E  E  E  E     E  E  E  E  E  E  E  E   
-------------------------|--------------------------|--------------------------|
-------------------------|--------------------------|--------------------------|
-------------------------|--------------------------|--------------------------|
-----5----------5--7--8--|--L--8--8--8--8--8--8--8--|--8--8--8--8--8--------6--|
--L-----2--3----3--5--6--|--L--6--6--6--6--6--6--5--|--5--5--5--5--5--8--6--4--|
-------------------------|--------------------------|--------------------------|


  E  E  E  E  E  E  E  E     E  E  E  E  E  E  E  E   
--------------------------|--------------------------|
--------------------------|--------------------------|
--------------------------|--------------------------|
--L--6--6--6--6-----------|-----------------------8--|
--L--4--4--4--4--5--6--8--|--8--8--8--8--8-----5--6--|
-----------------3--4--6--|--6--6--6--6--6--8--------|


  E  E  E  E  E  E  E  E     E  E  E  E  E  E  E  E   
--------------------------|--------------------------|
--------------------------|--------------------------|
--------------------------|--------------------------|
--L--8--8--8--8--8--8--8--|--8--8--8--8--8-----------|
--L--6--6--6--6--6--6--5--|--5--5--5--6--5--------6--|
--------------------------|-----------------8--6--4--|


  E  E  E  E  E  E  E  E     E  E  E  E  E  E  E  E   
--------------------------|--------------------------|
--------------------------|--------------------------|
--------------------------|--------------------------|
--------------------------|-----------3--L--3--3--5--|
--L--6--6--6--L--6--6--3--|--L--3--3--1--L--1--1--3--|
--L--4--4--3--L--3--3--1--|--L--1--1-----------------|


  E  E  E  E  E  E  E  E     H        E  E  Q       E  E  E  Q    E  E  E   
--------------------------|----------------------|--------5----------------|
--------------------------|----------------------|--------5----------------|
--------------------------|----------------------|--------5----------------|
--L--5--5--5--5--3-----5--|--L--------5----------|--------7----------------|
--L--3--3--3--3--1-----3--|--L--------3-----5----|--7--7----------5-----5--|
--------------------------|-----------------3----|--5--5----------3-----3--|


  E  E  E  Q    E  E  E     Q    E  Q    E  E  E     Q    E  E  E  E  E  E   
--------5----------------|-------3----------------|-------5-----------------|
--------5----------------|-------3----------------|-------5-----------------|
--------5----------------|-------4----------------|-------5-----------------|
--------7----------------|-------5-------5--------|-------7-----5-----------|
--7--7----------7-----5--|--L------------3-----7--|--L----------3-----5--5--|
--5--5----------5-----3--|--L------------------5--|--L----------------3--3--|


  E  E  E  Q    E  E  E     E  E  E  Q    E  E  E     Q    E  Q    E  E  E   
--------5----------------|--------5----------------|-------3----------------|
--------5----------------|--------5----------------|-------3----------------|
--------5----------------|--------5----------------|-------4----------------|
--------7----------------|--------7----------------|-------5-------5--------|
--7--7----------5-----5--|--7--7----------7-----5--|--L------------3-----7--|
--5--5----------3-----3--|--5--5----------5-----3--|--L------------------5--|


  E  E  E  E  E  E  E  E     E  E  E  E  E  E  E  E   
--------------------------|--------------------------|
--------------------------|--------------------------|
--------------------------|--------------------------|
--------------------------|--------------------------|
--7--7--7--7--7--7--7--7--|--8--8--8--8--8--8--8--8--|
--5--5--5--5--5--5--5--5--|--6--6--6--6--6--6--6--5--|


  E  E  E  E  E  E  E  E     E  E  E  Q    E  E  E     E  E  E  Q    E  E  E   
--------------------------|-------------------------|-------------------------|
--------------------------|-------------------------|-------------------------|
--------------------------|-------------------------|-------------------------|
--------------------------|-----5----------5--------|-----5----------5--7--8--|
--8--8--8--8--8--8--8-----|----------------------2--|--L-----2--3----3--5--6--|
--5--5--5--5--5--5--5--3--|--L-----3--5-------5-----|-------------------------|


  E  E  E  E  E  E  E  E     E  E  E  E  E  E  E  E   
--------------------------|--------------------------|
--------------------------|--------------------------|
--------------------------|--------------------------|
--L--8--8--8--8--8--8--8--|--8--8--8--8--8--------6--|
--L--6--6--6--6--6--6--5--|--5--5--5--5--5--8--6--4--|
--------------------------|--------------------------|


  E  E  E  E  E  E  E  E     E  E  E  E  E  E  E  E   
--------------------------|--------------------------|
--------------------------|--------------------------|
--------------------------|--------------------------|
--L--6--6--6--6-----------|-----------------------8--|
--L--4--4--4--4--5--6--8--|--8--8--8--8--8-----5--6--|
-----------------3--4--6--|--6--6--6--6--6--8--------|


  E  E  E  E  E  E  E  E     E  E  E  E  E  E  E  E   
--------------------------|--------------------------|
--------------------------|--------------------------|
--------------------------|--------------------------|
--L--8--8--8--8--8--8--8--|--8--8--8--8--8-----------|
--L--6--6--6--6--6--6--5--|--5--5--5--6--5--------6--|
--------------------------|-----------------8--6--4--|


  E  E  E  E  E  E  E  E     E  E  E  E  E  E  Q       E  E  E  E  E  E  E  E   
--------------------------|-------------------------|--------------------------|
--------------------------|-------------------------|--------------------------|
--------------------------|-------------------------|--------------------------|
--------------------------|-----------3--L--3--3----|--------------------------|
--L--6--6--6--L--6--6--3--|--L--3--3--1--L--1--1----|--6--6--6--6--6--6--6--8--|
--L--4--4--3--L--3--3--1--|--L--1--1----------------|--4--4--4--4--4--4--4--6--|


  E  E  E  E  E  E  E  E     E  E  E  E  E  E  E  E   
--------------------------|--------------------------|
--------------------------|--------------------------|
--------------------------|--------------------------|
--------------------------|--------------------------|
--8--8--8--8--8--8--8--8--|--6--6--6--6--6--6--6--8--|
--6--6--6--6--6--6--6--6--|--4--4--4--4--4--4--4--6--|


  E  E  E  E  E  E  E  E     E  E  E  E  E  E  E  E   
--------------------------|--------------------------|
--------------------------|--------------------------|
--------------------------|--------------------------|
--------------------------|--------------------------|
--8--8--8--8--8--8--8--8--|--6--6--6--6--6--6--6--8--|
--6--6--6--6--6--6--6--6--|--4--4--4--4--4--4--4--6--|


  E  E  E  E  E  E  E  E     Q     Q    E  Q    E     W                 
--------------------------|------------------------|-------------------|
--------------------------|--8---------------------|-------------------|
--------------------------|-------10----8--7----8--|--L----------------|
--------------------------|------------------------|-------------------|
--8--8--8--8--8--8--8--8--|------------------------|-------------------|
--6--6--6--6--6--6--6--6--|------------------------|-------------------|


  E  E  E  E  E  E  E  E     E  E  E  E  E  E  E  E   
--------------------------|--------------------------|
--------------------------|--------------------------|
--------------------------|--------------------------|
--6--6--6--6--6--6--6--6--|--6--6--6--6--6--6--6--6--|
--4--4--4--4--4--4--4--4--|--4--4--4--4--4--4--4--4--|
--------------------------|--------------------------|


  E  E  E  E  E  E  E  E     E  E  E  E  E  E  E  E   
--------------------------|--------------------------|
--------------------------|--------------------------|
--------------------------|--------------------------|
--3--3--3--3--3--3--3--3--|--3--3--3--3--3--3--3--3--|
--1--1--1--1--1--1--1--1--|--1--1--1--1--1--1--1--1--|
--------------------------|--------------------------|


  E  E  E  E  E  E  E  E     E  E  E  E  E  E  E  E   
--------------------------|--------------------------|
--------------------------|--------------------------|
--------------------------|--------------------------|
--6--6--6--6--6--6--6--6--|--6--6--6--6--6--6--6--6--|
--4--4--4--4--4--4--4--4--|--4--4--4--4--4--4--4--4--|
--------------------------|--------------------------|


  E  E  E  E  E  E  E  E     E  E  E  E  E  E  E  E   
--------------------------|--------------------------|
--------------------------|--------------------------|
--------------------------|--------------------------|
--3--3--3--3--3--3--3--3--|--3--3--3--3--3--3--3--3--|
--1--1--1--1--1--1--1--1--|--1--1--1--1--1--1--1--1--|
--------------------------|--------------------------|


  E  E  E  E  E  E  E  E     E  E  E  E  E  E  E  E   
--------------------------|--------------------------|
--------------------------|--------------------------|
--------------------------|--------------------------|
--8--8--8--8--8--8--8--8--|--L--8--8--8--8--8--8-----|
--6--6--6--6--6--6--6--5--|--L--5--5--5--5--5--5--6--|
--------------------------|-----------------------4--|


  E  E  E  E  E  E  E  E     E  E  E  E  E  E  E  E   
--------------------------|--------------------------|
--------------------------|--------------------------|
--------------------------|--------------------------|
--------------------------|-----------------------8--|
--L--6--6--6--6--6--6--8--|--8--8--8--8--8--8--8--6--|
--L--4--4--4--4--4--4--6--|--6--6--6--6--6--6--6-----|


  E  E  E  E  E  E  E  E     E  E  E  E  E  E  E  E     E  E  E  Q    E  E  E   
--------------------------|--------------------------|-------------------------|
--------------------------|--------------------------|-------------------------|
--------------------------|--------------------------|-------------------------|
--L--8--8--8--8--8--8--8--|--L--8--8--8--8--8--8-----|-------------------------|
--L--6--6--6--6--6--6--5--|--L--5--5--5--5--5--5--6--|--L--6--6--6----6--6--8--|
--------------------------|-----------------------4--|--L--4--4--3----3--3--6--|


  E  E  E  E  E  E  E  E     E  E  E  E  E  E  E  E   
--------------------------|--------------------------|
--------------------------|--------------------------|
--------------------------|--------------------------|
-----------------------6--|--6--6--6--6--6--6--6--6--|
--L--8--8--8--8--8--8--4--|--4--4--4--4--4--4--4--4--|
--L--6--6--6--6--6--6-----|--------------------------|


  E  E  E  E  E  E  E  E     E  E  E  E  E  E  E  E   
--------------------------|--------------------------|
--------------------------|--------------------------|
--------------------------|--------------------------|
--6--6--6--6--6--6--6--6--|--3--3--3--3--3--3--3--3--|
--4--4--4--4--4--4--4--4--|--1--1--1--1--1--1--1--1--|
--------------------------|--------------------------|


  E  E  E  E  E  E  E  E     E  E  E  E  E  E  E  E   
--------------------------|--------------------------|
--------------------------|--------------------------|
--------------------------|--------------------------|
--3--3--3--3--3--3--3--3--|--6--6--6--6--6--6--6--6--|
--1--1--1--1--1--1--1--1--|--4--4--4--4--4--4--4--4--|
--------------------------|--------------------------|


  E  E  E  E  E  E  E  E     E  E  E  E  E  E  E  E   
--------------------------|--------------------------|
--------------------------|--------------------------|
--------------------------|--------------------------|
--6--6--6--6--6--6--6--6--|--------------------------|
--4--4--4--4--4--4--4--4--|--8--8--8--8--8--8--8--8--|
--------------------------|--6--6--6--6--6--6--6--6--|


  E  E  E  E  E  E  E  E     E  E  E  E  E  E  E  E   
--------------------------|--------------------------|
--------------------------|--------------------------|
--------------------------|--------------------------|
--------------------------|--8--8--8--8--8--8--8--8--|
--8--8--8--8--8--8--8--8--|--6--6--6--6--6--6--6--5--|
--6--6--6--6--6--6--6--6--|--------------------------|


  E  E  E  E  E  E  E  E     E  E  E  E  E  E  E  E   
--------------------------|--------------------------|
--------------------------|--------------------------|
--------------------------|--------------------------|
--L--8--8--8--8--8--8-----|--------------------------|
--L--5--5--5--5--5--5--6--|--L--6--6--6--6--6--6--8--|
-----------------------4--|--L--4--4--4--4--4--4--6--|


  E  E  E  E  E  E  E  E     E  E  E  E  E  E  E  E   
--------------------------|--------------------------|
--------------------------|--------------------------|
--------------------------|--------------------------|
-----------------------8--|--L--8--8--8--8--8--8--8--|
--L--8--8--8--8--8--8--6--|--L--6--6--6--6--6--6--5--|
--L--6--6--6--6--6--6-----|--------------------------|


  E  E  E  E  E  E  E  E     E  E  E  E  E  E  E  E   
--------------------------|--------------------------|
--------------------------|--------------------------|
--------------------------|--------------------------|
--L--8--8--8--8--8--8-----|--------------------------|
--L--5--5--5--5--5--5--6--|--L--6--6--6--6--5--6--8--|
-----------------------4--|--L--4--4--4--4--3--4--6--|


  E  E  E  E  E  E  E  E     E  E  E  E  E  E  E  E   
--------------------------|--------------------------|
--------------------------|--------------------------|
--------------------------|--------------------------|
-----------------------8--|--8--8--8--8--8--8--8--8--|
--L--8--8--8--8--8--8--6--|--6--6--6--6--6--6--6--5--|
--L--6--6--6--6--6--6-----|--------------------------|


  E  E  E  E  E  E  E  E     E  E  E  E  E  E  E  E   
--------------------------|--------------------------|
--------------------------|--------------------------|
--------------------------|--------------------------|
--L--8--8--8--8--8--8-----|--------------------------|
--L--5--5--5--5--5--5--6--|--L--6--6--6--6--6--6--8--|
-----------------------4--|--L--4--4--4--4--4--4--6--|


  E  E  E  E  E  E  E  E     E  E  E  E  E  E  E  E   
--------------------------|--------------------------|
--------------------------|--------------------------|
--------------------------|--------------------------|
-----------------------8--|--L--8--8--8--8--8--8--8--|
--L--8--8--8--8--8--8--6--|--L--6--6--6--6--6--6--5--|
--L--6--6--6--6--6--6-----|--------------------------|


  E  E  E  E  E  E  E  E     E  E  E  E  E  E  E  E     E  E  E  E   
--------------------------|--------------------------|--------------|
--------------------------|--------------------------|--------------|
--------------------------|--------------------------|--------------|
--L--8--8--8--8--8--8-----|--------------------------|--------------|
--L--5--5--5--5--5--5--6--|--L--6--6--6--L--6--6--3--|--L--3--3--3--|
-----------------------4--|--L--4--4--3--L--3--3--1--|--L--1--1--1--|


  E  E  E  E  E  E  E  E     E  E  E  E  E  E  E  E   
--------------------------|--------------------------|
--------------------------|--------------------------|
--------------------------|--------------------------|
--8--8--8--8--8--8--8--8--|--L--8--8--8--8--8--8-----|
--6--6--6--6--6--6--6--5--|--L--5--5--5--5--5--5--6--|
--------------------------|-----------------------4--|


  E  E  E  E  E  E  E  E     E  E  E  E  E  E  E  E   
--------------------------|--------------------------|
--------------------------|--------------------------|
--------------------------|--------------------------|
--------------------------|--------------------------|
--L--6--6--6--6--6--6--8--|--6--6--6--6--6--6--6--8--|
--L--4--4--4--4--4--4--6--|--4--4--4--4--4--4--4--6--|


  E  E  E  E  E  E  E  E     E  E  E  E  E  E  E  E     E  E  E  E  E  E  Q     
--------------------------|--------------------------|-------------------------|
--------------------------|--------------------------|-------------------------|
--------------------------|--------------------------|-------------------------|
--------------------------|--------------------------|-------------------------|
--L--8--8--8--8--8--8--8--|--6--6--6--6--6--6--6--8--|--L--8--8--8--8--8--8----|
--L--6--6--6--6--6--6--6--|--4--4--4--4--4--4--4--6--|--L--6--6--6--6--6--6----|


  W                        
-------------------|-----||
-------------------|-----||
--8----------------|-----||
--8----------------|-----||
--6----------------|-----||
-------------------|-----||




Duration Legend
---------------
W - whole
H - half
Q - quarter
E - 8th
S - 16th
T - 32nd
X - 64th
. - note dotted
|-n-|  - n-tuplets


Tablature Legend
----------------
L - tied note
x - dead note
g - grace note
(n) - ghost note
> - accentuded note
NH - natural harmonic
AH - artificial harmonic
TH - tapped harmonic
SH - semi harmonic
PH - pitch harmonic
h - hammer on
p - pull off
b - bend
br - bendRelease
pb - preBend
pbr - preBendRelease
brb - bendReleaseBend
\n/ - tremolo bar dip
\n - tremolo bar dive
-/n - tremolo bar Release up
/n\ - tremolo bar inverted dip
/n - tremolo bar return
-\n - tremolo bar Release down
S - shift slide
s - legato slide
/ -  slide into from below or out of upwards
\ -  slide into from above or out of downwards
~ - vibrato
W - wide vibrato
tr - trill
TP - tremolo picking
T - tapping
S - slap
P - pop
< - fade in
^ - brush up
v - brush down
comments
We did not receive enough feedback on this tab! Please rate:
print report bad tab
1 2 3 4 5
I want to post or [tab]
guest
You may want to rate the tab now too:
select rating
Please do not post tabs as comments. Select "correction" instead!