Oops, an error
Loading. Please wait.

Twentieth Century Fox Tab

ver1
ver1

Whole song

Interactive

More versions @911Tabs.com
347 views 3 this week
no commentswrite comment
1 2 3 4 5
please rate
Autoscroll
+/-
esc
set tempo
stop
Contributor
Difficulty
intermediate
WARNING: You are trying to view
                                    content from Ultimate-Guitar.com
                                    in an unauthorized application,
                                    which is prohibited.

                                    Please use an official Ultimate
                                    Guitar Tabs application for iPhone,
                                    iPad or Android to access legitimate
                                    chords, guitar, bass, and drum tabs
                                    from Ultimate-Guitar.com database.

                                    Type "ultimate guitar tabs" in Apple
                                    App Store's or Android Market's
                                    search to find the application.
-----------------------------------------------------------------------------
                                  
               Twentieth Century Fox - 38 Special (GUITAR)
            
-----------------------------------------------------------------------------

Tabbed by: Scotto10

Tuning: standard tuning

=============================================================================
                                                           

Guitar 1



             W                   Q.     E  E  E  E  E     W                 
E||-------|-------------------|------------------------|-------------------|
B||-------|-------------------|------------------------|-------------------|
G||-------|--5----------------|--L------8-----3-----5--|--L----------------|
D||-------|--5----------------|--L------8-----3-----5--|--L----------------|
A||-------|-------------------|------------------------|-------------------|
E||-------|-------------------|------------------------|-------------------|


  Q.     E  E  E  E  E     W                   Q.     E  E  E  E  E   
------------------------|-------------------|------------------------|
------------------------|-------------------|------------------------|
--L------8-----3-----5--|--L----------------|--L------3-----3-----5--|
--L------8-----3-----5--|--L----------------|--L------3-----3-----5--|
------------------------|-------------------|------------------------|
------------------------|-------------------|------------------------|


  W                                       H.           E  E   
-------------------|-------------------|---------------------|
-------------------|-------------------|---------------------|
--L----------------|-------------------|--5------------L--8--|
--L----------------|-------------------|--5------------L--8--|
-------------------|-------------------|---------------------|
-------------------|-------------------|---------------------|


  H.           E  E     W                   E  E  E  E  E  E  E  E   
---------------------|-------------------|--------------------------|
------------------6--|--L----------------|--------------------------|
--L------------8--5--|--L----------------|--7--8-----8-----7-----5--|
--L------------8--7--|--L----------------|--8--8-----8-----8-----5--|
---------------------|-------------------|--------------------------|
---------------------|-------------------|--------------------------|


  H.           E  E     H.           E  E     W                 
---------------------|---------------------|-------------------|
---------------------|------------------6--|--L----------------|
--L------------L--8--|--L------------8--5--|--L----------------|
--L------------L--8--|--L------------8--7--|--L----------------|
---------------------|---------------------|-------------------|
---------------------|---------------------|-------------------|


  E  E  E  E  E  E  E  E     W                   H        E  E  E  E   
--------------------------|-------------------|-----------------------|
--------------------------|-------------------|-----------------------|
--7--8-----8-----7-----5--|--L----------------|--L-----------5-----3--|
--8--8-----8-----8-----5--|--L----------------|--L-----------5-----3--|
--------------------------|-------------------|-----------------------|
--------------------------|-------------------|-----------------------|


  W                   H        E  E  E  E     H.           E  E   
-------------------|-----------------------|---------------------|
-------------------|-----------------------|---------------------|
--L----------------|--L-----------8-----5--|--L------------L--8--|
--L----------------|--L-----------8-----5--|--L------------L--8--|
-------------------|-----------------------|---------------------|
-------------------|-----------------------|---------------------|


  Q    E  E  E  E  E  E     H.           E  E     H.           Q     
-------------------------|---------------------|--------------------|
-------------------------|---------------------|--------------------|
--L----5-----5--5-----3--|--L------------------|--------------------|
--L----7-----8--7-----3--|--L---------------3--|--L-----------------|
-------------------------|------------------3--|--L-----------------|
-------------------------|---------------------|--------------------|


  E  E  Q    E  E  Q       E  E  Q    E  E  Q       W                 
-----4-------4--4-------|-----6-------6--6-------|-------------------|
-----4-------4--4-------|-----6-------6--6-------|-------------------|
-----5-------5--5-------|-----7-------7--7-------|--5----------------|
------------------------|------------------------|--3----------------|
------------------------|------------------------|-------------------|
------------------------|------------------------|-------------------|


  E  E  E  E  E  E  E  E     H.           E  E     H.           E   E   
--------------------------|---------------------|----------------------|
--------------------------|------------------8--|--L------------L--10--|
--7-----7-----7-----7-----|--5------------L--8--|--L------------L--10--|
--5-----5-----5-----5-----|--5------------L--8--|--L------------L--10--|
--------------------------|---------------------|----------------------|
--------------------------|---------------------|----------------------|


   W                   E  E  E  E  E  E  E  E     H.           E  E   
--------------------|--------------------------|---------------------|
---L----------------|--------------------------|---------------------|
---L----------------|--7--8-----8-----7-----5--|--L------------L--8--|
---L----------------|--8--8-----8-----7-----5--|--L------------L--8--|
--------------------|--------------------------|---------------------|
--------------------|--------------------------|---------------------|


  H.           E   E      W                   E  E  E  E  E  E  E  E   
----------------------|--------------------|--------------------------|
----------------------|--------------------|--------------------------|
--L------------L--10--|---L----------------|--7--8-----8-----7-----5--|
--L------------L--10--|---L----------------|--8--8-----8-----7-----5--|
----------------------|--------------------|--------------------------|
----------------------|--------------------|--------------------------|


  H.           E  E     Q    E  E  E  E  E  E     W                 
---------------------|-------------------------|-------------------|
---------------------|-------------------------|-------------------|
--L------------L--5--|--5----5-----5--5--5--3--|--L----------------|
--L------------L--7--|--8----7-----8--7--5--3--|--L----------------|
---------------------|-------------------------|-------------------|
---------------------|-------------------------|-------------------|


  Q.     E  E  E  E  E     H.           E  E     Q    E  E  E  E  E  E   
------------------------|---------------------|-------------------------|
------------------------|---------------------|-------------------------|
--L------8-----8-----5--|--L---------------5--|--5----5-----5--5--5--3--|
--L------8-----8-----5--|--L---------------7--|--8----7-----8--7--5--3--|
------------------------|---------------------|-------------------------|
------------------------|---------------------|-------------------------|


  H.           E  E     H.           Q       E  E  Q    E  E  Q     
---------------------|--------------------|-----4-------4--4-------|
---------------------|--------------------|-----4-------4--4-------|
--L------------------|--------------------|-----5-------5--5-------|
--L---------------3--|--L-----------------|------------------------|
------------------3--|--L-----------------|------------------------|
---------------------|--------------------|------------------------|


  E  E  Q    E  E  Q       Q    Q    Q    Q       E  E  E  E  E  E  E  E   
-----6-------6--6-------|----------------------|--------------------------|
-----6-------6--6-------|----------------------|--------------------------|
-----7-------7--7-------|--5----4----5----6----|--7-----7-----7-----7-----|
------------------------|--3----2----3----4----|--5-----5-----5-----5-----|
------------------------|----------------------|--------------------------|
------------------------|----------------------|--------------------------|


  H.           E  E     H.           E   E      W                 
---------------------|----------------------|--------------------|
------------------8--|--L------------L--10--|---L----------------|
--5------------L--8--|--L------------L--10--|---L----------------|
--5------------L--8--|--L------------L--10--|---L----------------|
---------------------|----------------------|--------------------|
---------------------|----------------------|--------------------|


  E  E  E  E  E  E  E  E     H.           E  E     H.           E   E   
--------------------------|---------------------|----------------------|
--------------------------|---------------------|----------------------|
--7--8-----8-----7-----5--|--L------------L--8--|--L------------L--10--|
--8--8-----8-----7-----5--|--L------------L--8--|--L------------L--10--|
--------------------------|---------------------|----------------------|
--------------------------|---------------------|----------------------|


   W                   E  E  E  E  E  E  E  E     E   E  E  E   E  E  E   E   
--------------------|--------------------------|-----------------------------|
--------------------|--------------------------|-----------------------------|
---L----------------|--7--8-----8-----7-----5--|---------3--3------3--3------|
---L----------------|--8--8-----8-----8-----5--|-----/3--3--3--/3--3--3--/3--|
--------------------|--------------------------|-----------------------------|
--------------------|--------------------------|-----------------------------|


                    |--3--|                                 
  E  E  E  E  E  E  E  E  E     E   E  E  E   E  E  E   E   
-----------------------------|-----------------------------|
-----------------------------|-----------------------------|
--3--3--3--5-----5--5--5--5--|---------3--3------3--3------|
--3--3--3--5-----5--5--5--5--|-----/3--3--3--/3--3--3--/3--|
-----------------------------|-----------------------------|
-----------------------------|-----------------------------|


  |--3--|  |--3--|                             |----3----|     
  E  E  E  E  E  E  E  E  E     E     H        Q    Q    Q     
-----------------------------11g8--|--L--------6----8---------|
-----------------------------------|---------------------6----|
--3--3--3--3--3--3--3--3--3--------|--------------------------|
--3--3--3--3--3--3--3--3--3--------|--------------------------|
-----------------------------------|--------------------------|
-----------------------------------|--------------------------|


  |----3----|                            |---3--|   |---3--|   
  Q    Q    Q    H           E   Q.      E   E  E   E  E   E   
------------8-------------|--------------8--11--8-------------|
--4----6---------6--------|-----11b----------------11--8------|
--------------------------|-------------------------------11--|
--------------------------|-----------------------------------|
--------------------------|-----------------------------------|
--------------------------|-----------------------------------|


   |---3--|   |---3--|                                            
   E  E   E   E  E   E   Q    E  E      E   E  E   Q    E   Q     
---------------------------------8--|------11--------------------|
------------------------------------|----------------------11----|
--10--8--10--10--8------------------|--10---------10----8--------|
--------------------10---L----------|----------------------------|
------------------------------------|----------------------------|
------------------------------------|----------------------------|


   |---3---|   |---3---|  |--3--|          
   E   E   E   E   E   E  E  E  E    Q     
--11--11--11--10--10--10--8--8--8---------|
--11--11--11--10--10--10--8--8--8---------|
-----------------------------------/12----|
------------------------------------------|
------------------------------------------|
------------------------------------------|


   |---3---|                                                
   E   E   E   H          E      S  S     W                 
--------------------------------------|--------------------|
--13--11------13b---------Lpbr--------|--------------------|
----------12--------------------12-11-|--12----------------|
--------------------------------------|--------------------|
--------------------------------------|--------------------|
--------------------------------------|--------------------|


   H          E  E  E   E       H         E    E  E   E    
----------------------------|-----------------------------|
----------------------------|-----------------------------|
--10b--------10-----8--10b--|---L\----------------8--10b--|
----------------------------|----------------/10----------|
----------------------------|-----------------------------|
----------------------------|-----------------------------|


              |----3----|                                       
  H           E      E  E   E   E      H         E   E  E   E   
-----------------------------------|---------------------------|
-----------------------------------|---------------------------|
--Lpb--------10pbr--10--8----------|--------------------8--10--|
---------------------------10--10--|---L---------L--10---------|
-----------------------------------|---------------------------|
-----------------------------------|---------------------------|


   H         E  E   E   E       E   E  E   E  E  E   E  E   
----------------------------|------------------------------|
----------------------------|------------------------------|
---L--------10--8------10s--|--12--10-----10-----8--10--8--|
-------------------10-------|------------------------------|
----------------------------|------------------------------|
----------------------------|------------------------------|


  E   H.            E      Q.      H         E       W                   
-----------------------|----------11-------------|----------------------|
-----------------------|--------------------11b--|---Lpb----------------|
-----------------------|-------------------------|----------------------|
-----10-------------L--|---L---------------------|----------------------|
-----------------------|-------------------------|----------------------|
-----------------------|-------------------------|----------------------|


   Q      E  E  E  E  E  E     W                   Q    E  E  E  E  E   E   
----------------------------|-------------------|--------------------------|
---Lpb-------------------8--|--L----------------|--L-----------------------|
-------------------------8--|--L----------------|--L-------------------10--|
-------------------5--7--8--|--L----------------|--L-------------------10--|
-------------6--7-----------|-------------------|--------------------------|
----------------------------|-------------------|----------8--6--8---------|


                                               |----3----|    |----3----|     
   H.           E  E     H        H            Q    Q    Q    Q    Q    Q     
----------------------|---------------------|--6----6----6----6----6----6----|
----------------------|---------------------|--6----6----6----6----6----6----|
---L---------------8--|--L--------L\--------|--4----4----4----4----4----4----|
---L---------------8--|--L--------L\--------|--5----5----5----5----5----5----|
----------------------|---------------------|--------------------------------|
----------------------|---------------------|--------------------------------|


  H        H            H.           E  E     H.           E   E   
--6--------L\--------|---------------------|----------------------|
--6--------L\--------|---------------------|----------------------|
--4--------L\--------|--5---------------8--|--L---------------10--|
--5--------L\--------|--5---------------8--|--L---------------10--|
---------------------|---------------------|----------------------|
---------------------|---------------------|----------------------|


   W                   E  E  E  E  E  E  E  E     H.           E  E   
--------------------|--------------------------|---------------------|
--------------------|--------------------------|---------------------|
---L----------------|--7--8-----8-----7-----5--|--L---------------8--|
---L----------------|--8--8-----8-----8-----5--|--L---------------8--|
--------------------|--------------------------|---------------------|
--------------------|--------------------------|---------------------|


  H.           E   E      H.           E  E     Q.      H        E   
----------------------|----------------------|----------------------|
----------------------|----------------------|----------------------|
--L---------------10--|---L---------------8--|--L------10--------5--|
--L---------------10--|---L---------------8--|--L------10--------5--|
----------------------|-------------------6--|--L-------8-----------|
----------------------|----------------------|----------------------|


  H.           E  E     Q    E  E  E  E  E  E     W                 
---------------------|-------------------------|-------------------|
---------------------|-------------------------|-------------------|
--L------------L--5--|--5----5-----5--5--5--3--|--L----------------|
--L------------L--7--|--8----7-----8--7--5--3--|--L----------------|
---------------------|-------------------------|-------------------|
---------------------|-------------------------|-------------------|


  Q.     E  E  E  E  E     H.           E  E     Q    E  E  E  E  E  E   
------------------------|---------------------|-------------------------|
------------------------|---------------------|-------------------------|
--L------8-----8-----5--|--L---------------5--|--5----5-----5--5--5--3--|
--L------8-----8-----5--|--L---------------7--|--8----7-----8--7--5--3--|
------------------------|---------------------|-------------------------|
------------------------|---------------------|-------------------------|


  H.           E  E     H.           Q       E  E  Q    E  E  Q     
---------------------|--------------------|-----4-------4--4-------|
---------------------|--------------------|-----4-------4--4-------|
--L------------------|--------------------|-----5-------5--5-------|
--L---------------3--|--L-----------------|------------------------|
------------------3--|--L-----------------|------------------------|
---------------------|--------------------|------------------------|


                                                  |--3--|       |--3--|        
  E  E  Q    E  E  Q       Q    Q    Q    Q       E  E  E  Q    E  E  E  Q     
-----6-------6--6-------|----------------------|------------------------------|
-----6-------6--6-------|----------------------|------------------------------|
-----7-------7--7-------|--5----4----5----6----|--7--7--7--7----7--7--7--7----|
------------------------|--3----2----3----4----|--5--5--5--5----5--5--5--5----|
------------------------|----------------------|------------------------------|
------------------------|----------------------|------------------------------|


  H.           E  E     Q    E  E  E  E  E   E      W                 
---------------------|--------------------------|--------------------|
---------------------|-------6-----8------------|--------------------|
--5---------------8--|--L-------------8-----10--|---L----------------|
--5---------------8--|--L-------------------10--|---L----------------|
---------------------|--------------------------|--------------------|
---------------------|--------------------------|--------------------|


  E  E  E  E  E  E  E  E     H.           E  E     H.           E   E   
--------------------------|---------------------|----------------------|
--------------------------|---------------------|----------------------|
--7--8-----8-----7-----5--|--L---------------8--|--L------------L--10--|
--8--8-----8-----7-----5--|--L---------------8--|--L------------L--10--|
--------------------------|---------------------|----------------------|
--------------------------|---------------------|----------------------|


   W                   E  E  E  E  E  E  E  E     H.           E  E   
--------------------|--------------------------|---------------------|
--------------------|--------------------------|---------------------|
---L----------------|--7--8-----8-----7-----5--|--5---------------8--|
---L----------------|--8--8-----8-----7-----5--|--5---------------8--|
--------------------|--------------------------|---------------------|
--------------------|--------------------------|---------------------|


  Q    E  E  E  E  E   E      W                   E  E  E  E  E  E  E  E   
--------------------------|--------------------|--------------------------|
-------6-----8------------|--------------------|--------------------------|
--L-------------8-----10--|---L----------------|--7--8-----8-----7-----5--|
--L-------------------10--|---L----------------|--8--8-----8-----7-----5--|
--------------------------|--------------------|--------------------------|
--------------------------|--------------------|--------------------------|


  H.           E  E     H.           E   E      W                 
---------------------|----------------------|--------------------|
---------------------|----------------------|--------------------|
--L---------------8--|--L------------L--10--|---L----------------|
--L---------------8--|--L------------L--10--|---L----------------|
---------------------|----------------------|--------------------|
---------------------|----------------------|--------------------|


   |------3------|      |------3------|                                    
   Q      Q      Q      Q      Q      Q         H         E   E   E   E    
---8------8------8------8------8------8-----|-----------------------------|
--11b----11b----11b----11b----11b----11b----|--11--------11--11b-----11b--|
--------------------------------------------|-----------------------------|
--------------------------------------------|-----------------------------|
--------------------------------------------|-----------------------------|
--------------------------------------------|-----------------------------|


   H         E  Q      E      E  E  Q     E   E  Q     
--------------------------|---------------------------|
--11--------11------------|---------------------------|
----------------8b--------|---------8-----------------|
----------------------10--|---L--8-------10------8----|
--------------------------|------------------10-------|
--------------------------|---------------------------|


  E  E    Q     E   E  E   E      Q     H        E  E     H.           E   E   
------------------------------|------------------------|----------------------|
------------------------------|------------------------|----------------------|
------------------------------|---------------------8--|--L---------------10--|
---------------10------8--10--|---L\----------------8--|--L---------------10--|
--8--6--/10--------10---------|------------------------|----------------------|
------------------------------|------------------------|----------------------|


   H.           E  E     Q    E  Q      Q.      
----------------------|------------------------|
----------------------|---------------/11------|
---L------------------|------------------------|
---L---------------6--|--L-------8-------------|
-------------------6--|--L-------8-------------|
-------------------4--|--L-------6-------------|


   Q     E   E   E   E   E   E      Q     E   E   E   Q     E    
--11------------------------11--|---L----------------------15b--|
--------13--11--13--13--11------|--------13--11--13--11---------|
--------------------------------|-------------------------------|
--------------------------------|-------------------------------|
--------------------------------|-------------------------------|
--------------------------------|-------------------------------|


               |------3------|        |-------3-------|   |---3---|          
   H           Q       Q     Q        Q     Q     E   E   E   E   E   S E.   
---Lpb---------Lpb----15----14----|--13----11-------------------------------|
----------------------------------|--------------13--11------11-------------|
----------------------------------|----------------------12------12--10-8---|
----------------------------------|-----------------------------------------|
----------------------------------|-----------------------------------------|
----------------------------------|-----------------------------------------|


  Q     H        E  E     H.           E   E      E   Q     Q     Q.      
-----------------------|----------------------|--------------------------|
-----------------------|----------------------|--------------------------|
--8\----------------8--|--L---------------10--|---L--10----10----10------|
--------------------8--|--L---------------10--|---L--10----10----10------|
-----------------------|----------------------|--------------------------|
-----------------------|----------------------|--------------------------|


  tr     tr     tr     tr     tr     tr     tr     tr      
  E      E      E      E      E      E      E      E       
----------------------------------------------------------|
--8(11)--8(11)--8(11)--8(11)--8(11)--8(11)--8(11)--8(11)--|
----------------------------------------------------------|
----------------------------------------------------------|
----------------------------------------------------------|
----------------------------------------------------------|


  H.           E  E     H.           E   E      H.           E  E   
---------------------|----------------------|----------------------|
---------------------|----------------------|----------------------|
--5---------------8--|--L---------------10--|---L------------------|
--5---------------8--|--L---------------10--|---L------------------|
---------------------|----------------------|-------------------6--|
---------------------|----------------------|-------------------4--|


  Q.     Q.     Q      
---------------------||
---------------------||
---------------------||
---------------------||
--L------8-----------||
--L------6-----------||




=============================================================================
=============================================================================


                                                            38 Special
Guitar 2



                      PM PM PM PM    PM PM PM PM PM PM PM PM  
             H        E  E  E  E     E  E  E  E  E  E  E  E   
E||-------|-----------------------|--------------------------|
B||-------|-----------------------|--------------------------|
G||-------|-----------------------|--------------------------|
D||-------|--5--------5--5--5--5--|--5--5--5--5--5--5--5--5--|
A||-------|--3--------3--3--3--3--|--3--3--3--3--3--3--3--3--|
E||-------|-----------------------|--------------------------|


  PM PM PM PM PM PM PM PM    PM PM PM PM PM PM PM PM  
  E  E  E  E  E  E  E  E     E  E  E  E  E  E  E  E   
--------------------------|--------------------------|
--------------------------|--------------------------|
--------------------------|--------------------------|
--5--5--5--5--5--5--5--5--|--5--5--5--5--5--5--5--5--|
--3--3--3--3--3--3--3--3--|--3--3--3--3--3--3--3--3--|
--------------------------|--------------------------|


  PM PM PM PM PM PM PM PM    PM PM PM PM PM PM PM PM    PM PM PM PM PM PM PM    
  E  E  E  E  E  E  E  E     E  E  E  E  E  E  E  E     E  E  E  E  E  E  Q     
--------------------------|--------------------------|-------------------------|
--------------------------|--------------------------|-------------------------|
--------------------------|--------------------------|-------------------------|
--5--5--5--5--5--5--5--5--|--5--5--5--5--5--5--5--5--|--5--5--5--5--5--5--5----|
--3--3--3--3--3--3--3--3--|--3--3--3--3--3--3--3--3--|--3--3--3--3--3--3--3----|
--------------------------|--------------------------|-------------------------|


        PM PM PM PM PM PM PM PM    PM PM PM PM PM PM PM PM  
        E  E  E  E  E  E  E  E     E  E  E  E  E  E  E  E   
-----|--------------------------|--------------------------|
-----|--------------------------|--------------------------|
-----|--------------------------|--------------------------|
-----|--------------------------|--------------------------|
-----|--3--3--3--3--3--3--3--3--|--3--3--3--3--3--3--3--3--|
-----|--------------------------|--------------------------|


  PM PM PM PM PM PM PM PM    PM PM PM PM PM PM PM PM  
  E  E  E  E  E  E  E  E     E  E  E  E  E  E  E  E   
--------------------------|--------------------------|
--------------------------|--------------------------|
--------------------------|--------------------------|
--------------------------|--------------------------|
--3--3--3--3--3--3--3--3--|--3--3--3--3--3--3--3--3--|
--------------------------|--------------------------|


  PM PM PM PM PM PM PM PM    PM PM PM PM PM PM PM PM  
  E  E  E  E  E  E  E  E     E  E  E  E  E  E  E  E   
--------------------------|--------------------------|
--------------------------|--------------------------|
--------------------------|--------------------------|
--------------------------|--------------------------|
--3--3--3--3--3--3--3--3--|--3--3--3--3--3--3--3--3--|
--------------------------|--------------------------|


  PM PM PM PM PM PM PM PM    PM PM PM PM PM PM PM     
  E  E  E  E  E  E  E  E     E  E  E  E  E  E  E  E   
--------------------------|--------------------------|
--------------------------|--------------------------|
--------------------------|--------------------------|
--------------------------|-----------------------5--|
--3--3--3--3--3--3--3--3--|--3--3--3--3--3--3--3--3--|
--------------------------|--------------------------|


  E  E  E  E  E  E  E  E     E  E  E  E  E  E  E  E   
--------------------------|--------------------------|
--------------------------|--------------------------|
--------------------------|--------------------------|
--L--5--5--5--5--5--5--5--|--5--5--5--5--5--5--5--3--|
--L--3--3--3--3--3--3--3--|--3--3--3--3--3--3--3--1--|
--------------------------|--------------------------|


  E  E  E  E  E  E  E  E     E  E  E  E  E  E  E  E   
--------------------------|--------------------------|
--------------------------|--------------------------|
--------------------------|--------------------------|
--L--3--3--3--3--3--3--3--|--3--3--3--3--3--3--3--5--|
--L--1--1--1--1--1--1--1--|--1--1--1--1--1--1--1--3--|
--------------------------|--------------------------|


  E  E  E  E  E  E  E  E     E  E  E  E  E  E  E  E   
--------------------------|--------------------------|
--------------------------|--------------------------|
--------------------------|--------------------------|
--L--5--5--5--5--5--5--5--|--5--5--5--5--5--5--5--3--|
--L--3--3--3--3--3--3--3--|--3--3--3--3--3--3--3--1--|
--------------------------|--------------------------|


  E  E  E  E  E  E  E  E     E  E  E  E  E  E  E  E   
--------------------------|--------------------------|
--------------------------|--------------------------|
--------------------------|--------------------------|
--L--3--3--3--3--3--3-----|--------------------------|
--L--1--1--1--1--1--1--3--|--3--3--3--3--3--3--3--6--|
-----------------------1--|--1--1--1--1--1--1--1--4--|


  E  E  E  E  E  E  E  E     E  E  E  E  E  E  Q      
--------------------------|--------------------------|
--------------------------|--------------------------|
--------------------------|--------------------------|
--------------------------|--------------------------|
--6--6--6--6--6--6--6--8--|--8--8--8--8--8--8--8\----|
--4--4--4--4--4--4--4--6--|--6--6--6--6--6--6--6\----|


  E  E  E  E  E  E  E  E     E  E  E  E  E  E  E  E   
--------------------------|--------------------------|
--------------------------|--6-----6-----6-----6-----|
--------------------------|--4-----4-----4-----4-----|
--------------------------|--3-----3-----3-----3-----|
--3--3--3--3--3--3--3--3--|--5-----5-----5-----5-----|
--1--1--1--1--1--1--1--1--|--3-----3-----3-----3-----|


  E  E  E  E  E  E  E  E     E  E  E  E  E  E  E  E   
--------------------------|--------------------------|
--------------------------|--------------------------|
--------------------------|--------------------------|
--------------------------|--------------------------|
--3--3--3--3--3--3--3--3--|--3--3--3--3--3--3--3--3--|
--------------------------|--------------------------|


  E  E  E  E  E  E  E  E     E  E  E  E  E  E  E  E   
--------------------------|--------------------------|
--------------------------|--------------------------|
--------------------------|--------------------------|
--------------------------|--------------------------|
--3--3--3--3--3--3--3--3--|--3--3--3--3--3--3--3--3--|
--------------------------|--------------------------|


  E  E  E  E  E  E  E  E     E  E  E  E  E  E  E  E   
--------------------------|--------------------------|
--------------------------|--------------------------|
--------------------------|--------------------------|
--------------------------|--------------------------|
--3--3--3--3--3--3--3--3--|--3--3--3--3--3--3--3--3--|
--------------------------|--------------------------|


  E  E  E  E  E  E  E  E     E  E  E  E  E  E  E  E   
--------------------------|--------------------------|
--------------------------|--------------------------|
--------------------------|--------------------------|
--------------------------|-----------------------5--|
--3--3--3--3--3--3--3--3--|--3--3--3--3--3--3--3--3--|
--------------------------|--------------------------|


  E  E  E  E  E  E  E  E     E  E  E  E  E  E  E  E   
--------------------------|--------------------------|
--------------------------|--------------------------|
--------------------------|--------------------------|
--L--5--5--5--5--5--5--5--|--5--5--5--5--5--5--5--3--|
--L--3--3--3--3--3--3--3--|--3--3--3--3--3--3--3--1--|
--------------------------|--------------------------|


  E  E  E  E  E  E  E  E     E  E  E  E  E  E  E  E   
--------------------------|--------------------------|
--------------------------|--------------------------|
--------------------------|--------------------------|
--3--3--3--3--3--3--3--3--|--3--3--3--3--3--3--3--5--|
--1--1--1--1--1--1--1--1--|--1--1--1--1--1--1--1--3--|
--------------------------|--------------------------|


  E  E  E  E  E  E  E  E     E  E  E  E  E  E  E  E   
--------------------------|--------------------------|
--------------------------|--------------------------|
--------------------------|--------------------------|
--5--5--5--5--5--5--5--5--|--5--5--5--5--5--5--5--3--|
--3--3--3--3--3--3--3--3--|--3--3--3--3--3--3--3--1--|
--------------------------|--------------------------|


  E  E  E  E  E  E  E  E     E  E  E  E  E  E  E  E   
-----------------------1--|--L--1--1--1--1--1--1--1--|
-----------------------1--|--L--1--1--1--1--1--1--1--|
--------------------------|--------------------------|
--3--3--3--3--3--3--3-----|--------------------------|
--1--1--1--1--1--1--1-----|--------------------------|
--------------------------|--------------------------|


  E  E  E  E  E  E  E  E     E  E  E  E  E  E  E  E   
--------------------------|--------------------------|
--------------------------|--------------------------|
--------------------------|--------------------------|
--------------------------|--------------------------|
--6--6--6--6--6--6--6--6--|--8--8--8--8--8--8--8--8--|
--4--4--4--4--4--4--4--4--|--6--6--6--6--6--6--6--6--|


  E  E  E  E  E  E  E  E     E  E  E  E  E  E  E  E   
--------------------------|--------------------------|
--------------------------|--6-----6-----6-----6-----|
--------------------------|--4-----4-----4-----4-----|
--------------------------|--3-----3-----3-----3-----|
--3--3--3--3--3--3--3--3--|--5-----5-----5-----5-----|
--1--1--1--1--1--1--1--1--|--3-----3-----3-----3-----|


  E  E  E  E  E  E  E  E     E  E  E  E  E  E  E  E   
--------------------------|--------------------------|
--------------------------|--------------------------|
--------------------------|--------------------------|
--------------------------|--------------------------|
--3--3--3--3--3--3--3--3--|--3--3--3--3--3--3--3--3--|
--------------------------|--------------------------|


  E  E  E  E  E  E  E  E     E  E  E  E  E  E  E  E   
--------------------------|--------------------------|
--------------------------|--------------------------|
--------------------------|--------------------------|
--------------------------|--------------------------|
--3--3--3--3--3--3--3--3--|--3--3--3--3--3--3--3--3--|
--------------------------|--------------------------|


  E  E  E  E  E  E  E  E     E  E  E  E  E  E  E  E   
--------------------------|--------------------------|
--------------------------|--------------------------|
--------------------------|--------------------------|
--------------------------|--------------------------|
--3--3--3--3--3--3--3--3--|--3--3--3--3--3--3--3--3--|
--------------------------|--------------------------|


  E  E  E  E  E  E  E  E     E  E  E  E  E  E  E  E   
--------------------------|--------------------------|
--------------------------|--------------------------|
--------------------------|--7--8-----8-----7-----5--|
--------------------------|--8--8-----8-----8-----5--|
--3--3--3--3--3--3--3--3--|--------------------------|
--------------------------|--------------------------|


                                                  |--3--|   
  E   E  E  E   E  E  E   E     E  E  E  E  E  E  E  E  E   
-----------------------------|-----------------------------|
-----------------------------|-----------------------------|
---------3--3------3--3------|--3--3--3--5-----5--5--5--5--|
-----/3--3--3--/3--3--3--/3--|--3--3--3--5-----5--5--5--5--|
-----------------------------|-----------------------------|
-----------------------------|-----------------------------|


                                |--3--|  |--3--|               
  E   E  E  E   E  E  E   E     E  E  E  E  E  E  E  E  E  E   
-----------------------------|--------------------------------|
-----------------------------|--------------------------------|
---------3--3------3--3------|--3--3--3--3--3--3--3--3--3-----|
-----/3--3--3--/3--3--3--/3--|--3--3--3--3--3--3--3--3--3-----|
-----------------------------|-----------------------------6--|
-----------------------------|-----------------------------4--|


  E  E  E  E  E  E  E  E     E  E  E  E  E  E   Q     
--------------------------|--------------------------|
--------------------------|--------------------------|
--------------------------|--------------------------|
--------------------------|--------------------------|
--6--6--6--6--6--6--6--8--|--8--8--8--8--8--8--10----|
--4--4--4--4--4--4--4--6--|--6--6--6--6--6--6---6----|


  E  E  E  E  E  E  E  E     E  E  E  E  E  E  E  E   
--------------------------|--------------------------|
--------------------------|--------------------------|
--------------------------|--------------------------|
--------------------------|--------------------------|
--6--6--6--6--6--6--6--6--|--6--6--6--6--6--6--6--6--|
--4--4--4--4--4--4--4--4--|--4--4--4--4--4--4--4--4--|


  E  E  E  E  E  E  E  E     E  E  E  E  E  E  Q     
--------------------------|-------------------------|
--------------------------|-------------------------|
--------------------------|-------------------------|
--------------------------|-------------------------|
--6--6--6--6--6--6--6--6--|--6--6--6--6--6--6--8----|
--4--4--4--4--4--4--4--4--|--4--4--4--4--4--4--6----|


        |--3--|                     |--3--|                                 
  E  E  E  E  E  Q.     E     E  E  E  E  E  Q.     E     W                 
---------------------------|---------------------------|-------------------|
---------------------------|---------------------------|-------------------|
---------------------------|---------------------------|-------------------|
---------------------------|---------------------------|--5----------------|
--5--5--5--5--5--5------5--|--5--5--5--5--5--5------5--|--3----------------|
--3--3--3--3--3--3------3--|--3--3--3--3--3--3------3--|-------------------|


  Q.     E  E  E  E  E     W                   E   Q.       E.     S  E   E   
------------------------|-------------------|-----18-------------------------|
------------------------|-------------------|-----18b------18br---16-18--18--|
---------------------8--|--L----------------|--------------------------------|
--L------------5--7--8--|--L----------------|--------------------------------|
--L------6--7-----------|-------------------|--------------------------------|
------------------------|-------------------|--------------------------------|


                     |---3---|                     |-----3----|           
   H         E   E   E   E   E     E   E  E   E    E      E   E   E   E   
--------------------------------|----------------------------------------|
---L--------18--16--------------|-----18-----18b---Lpbr--18--16--18--16--|
--------------------17----------|----------------------------------------|
------------------------17--15--|----------------------------------------|
--------------------------------|----------------------------------------|
--------------------------------|----------------------------------------|


  E   H.            E      E   E   E  Q     E  E   E   
-----------------------|--11--------------------------|
-----------------------|------13----------------------|
-----17-------------L--|----------12--8--------8--12--|
-----------------------|-------------------10---------|
-----------------------|------------------------------|
-----------------------|------------------------------|


                                             |---3---|                
   E    Q.       E   E    E   E      E   E   E   E   E   Q.       E   
----------------11--13p--11------|--11--13--11--13--11---L\------15--|
-----------------------------13--|-------------------------------16--|
--15b--15b-----------------------|-----------------------------------|
---------------------------------|-----------------------------------|
---------------------------------|-----------------------------------|
---------------------------------|-----------------------------------|


  E   E  E   E   Q     E   E      E   E    Q    Q    E   E    
-----15-----15---L\-----------|------11s--10----8-------18b--|
-----16-----16---L\-----------|------11s--10----8------------|
--------------------------12--|---L--------------------------|
------------------------------|------------------------------|
------------------------------|------------------------------|
------------------------------|------------------------------|


   E    H          E     E   E      E   E   E   E   S  Q     E.   
---Lb--18b---------Lpb----------|--------------------------------|
------------------------18--19--|--20--16----------16------------|
--------------------------------|----------17--15-----17-----L---|
--------------------------------|--------------------------------|
--------------------------------|--------------------------------|
--------------------------------|--------------------------------|


   |------3-----|     |-----3-----|                                
   Q      Q     Q     Q     Q     Q        Q     E   H         E   
--16b----15----14----13----------------|--------------------------|
---------------------------16----13----|--------------------------|
---------------------------------------|--12\---------------------|
---------------------------------------|------------10---------L--|
---------------------------------------|--------------------------|
---------------------------------------|--------------------------|


  W                   W                   W                   W                 
-------------------|-------------------|-------------------|-------------------|
-------------------|-------------------|-------------------|-------------------|
-------------------|-------------------|-------------------|-------------------|
--5----------------|--L----------------|--L----------------|--L----------------|
--3----------------|--L----------------|--L----------------|--L----------------|
-------------------|-------------------|-------------------|-------------------|


                                              |--3--|   
  E  E  Q    E  E  E  E     Q     Q    E  E   E  E  E   
-------------------------|-----------------------------|
-------------------------|-----------------------------|
--3--5-------------3--5--|--L\-------------------3--5--|
----------------5--------|----------------3s--5--------|
-------------------------|-----------------------------|
-------------------------|-----------------------------|


                                       |----3---|               
  E  Q     Q    E   Q         E    E   E    E   E   Q    E  E   
--------------------------|------------------------------------|
--4----------------11b----|---Lpb--8---------------------------|
-----5\-------------------|-----------11p--10p--8--10----------|
--------------------------|---------------------------------5--|
--------------------------|---------------------------------3--|
--------------------------|------------------------------------|


  E  E  E  E  E  E  E  E     E  E  E  E  E  E  E  E   
--------------------------|--------------------------|
--------------------------|--------------------------|
--------------------------|--------------------------|
--L--5--5--5--5--5--5--5--|--5--5--5--5--5--5--5--3--|
--L--3--3--3--3--3--3--3--|--3--3--3--3--3--3--3--1--|
--------------------------|--------------------------|


  E  E  E  E  E  E  E  E     E  E  E  E  E  E  E  E   
--------------------------|--------------------------|
--------------------------|--------------------------|
--------------------------|--------------------------|
--3--3--3--3--3--3--3--3--|--3--3--3--3--3--3--3--5--|
--1--1--1--1--1--1--1--1--|--1--1--1--1--1--1--1--3--|
--------------------------|--------------------------|


  E  E  E  E  E  E  E  E     E  E  E  E  E  E  E  E   
--------------------------|--------------------------|
--------------------------|--------------------------|
--------------------------|--------------------------|
--5--5--5--5--5--5--5--5--|--5--5--5--5--5--5--5--3--|
--3--3--3--3--3--3--3--3--|--3--3--3--3--3--3--3--1--|
--------------------------|--------------------------|


  E  E  E  E  E  E  E  E     E  E  E  E  E  E  E  E   
-----------------------1--|--L--1--1--1--1--1--1--1--|
-----------------------1--|--L--1--1--1--1--1--1--1--|
--------------------------|--------------------------|
--3--3--3--3--3--3--3-----|--------------------------|
--1--1--1--1--1--1--1-----|--------------------------|
--------------------------|--------------------------|


  E  E  E  E  E  E  E  E     E  E  E  E  E  E  E  E     E  E  Q    E  E  Q     
--------------------------|--------------------------|--1--1--1----1--1--1----|
--------------------------|--------------------------|--1--1--1----1--1--1----|
--------------------------|--------------------------|------------------------|
--------------------------|--------------------------|------------------------|
--6--6--6--6--6--6--6--6--|--8--8--8--8--8--8--8--8--|------------------------|
--4--4--4--4--4--4--4--4--|--6--6--6--6--6--6--6--6--|------------------------|


  |--3--|       |--3--|                                                     
  E  E  E  Q    E  E  E  Q       H.           E  E     H.           E   E   
------------------------------|---------------------|----------------------|
--6--6--6--6----6--6--6--6----|---------------------|----------------------|
--4--4--4--4----4--4--4--4----|--5---------------8--|--L---------------10--|
--3--3--3--3----3--3--3--3----|--5---------------8--|--L---------------10--|
--5--5--5--5----5--5--5--5----|---------------------|----------------------|
--3--3--3--3----3--3--3--3----|---------------------|----------------------|


   W                   E  E  E  E  E  E  E  E     H.           E  E   
--------------------|--------------------------|---------------------|
--------------------|--------------------------|---------------------|
---L----------------|--7--8-----8-----7-----5--|--L---------------8--|
---L----------------|--8--8-----8-----7-----5--|--L---------------8--|
--------------------|--------------------------|---------------------|
--------------------|--------------------------|---------------------|


  H.           E   E      W                   E  E  E  E  E  E  E  E   
----------------------|--------------------|--------------------------|
----------------------|--------------------|--------------------------|
--L------------L--10--|---L----------------|--7--8-----8-----7-----5--|
--L------------L--10--|---L----------------|--8--8-----8-----7-----5--|
----------------------|--------------------|--------------------------|
----------------------|--------------------|--------------------------|


  H.           E  E     H.           E   E      W                 
---------------------|----------------------|--------------------|
---------------------|----------------------|--------------------|
--5---------------8--|--L---------------10--|---L----------------|
--5---------------8--|--L---------------10--|---L----------------|
---------------------|----------------------|--------------------|
---------------------|----------------------|--------------------|


  E  E  E  E  E  E  E  E     H.           E  E     H.           E   E   
--------------------------|---------------------|----------------------|
--------------------------|---------------------|----------------------|
--7--8-----8-----7-----5--|--L---------------8--|--L------------L--10--|
--8--8-----8-----7-----5--|--L---------------8--|--L------------L--10--|
--------------------------|---------------------|----------------------|
--------------------------|---------------------|----------------------|


                       |----3----|    |----3----|                           
   W                   Q    Q    Q    Q    Q    Q       H.           E  E   
--------------------|--------------------------------|---------------------|
--------------------|--------------------------------|---------------------|
---L----------------|--------------------------------|--5---------------8--|
---L----------------|--------------------------------|--5---------------8--|
--------------------|--6----6----6----8----8----8----|---------------------|
--------------------|--4----4----4----6----6----6----|---------------------|


  H.           E   E      H.           E  E     Q    E  Q.     E   E    
----------------------|----------------------|-------------------------|
----------------------|----------------------|-------------------------|
--L---------------10--|--10------------------|--------------------10b--|
--L---------------10--|--10------------------|-------------------------|
----------------------|-------------------6--|--L-------8--------------|
----------------------|-------------------4--|--L-------6--------------|


   E    E  E   Q.       Q        E  E  E   Q.      E   E   
-----------8-----------11\----|-----8--8------------------|
--------8-----11b-------------|-----8--8--13------11--13--|
---Lpb------------------------|---------------------------|
------------------------------|---------------------------|
------------------------------|---------------------------|
------------------------------|---------------------------|


                            |----3----|                           
   E   E   E   E   E   E    E     E   E      H.            E  E   
--11--12--13--11--13--13b---Lpb--11--15--|--12\------------------|
-----------------------------------------|--12\------------------|
-----------------------------------------|--------------------5--|
-----------------------------------------|--------------------5--|
-----------------------------------------|-----------------------|
-----------------------------------------|-----------------------|


  H.           E  E     H.           E   E      H.           E  E   
---------------------|----------------------|----------------------|
---------------------|----------------------|----------------------|
--L---------------8--|--L---------------10--|---L------------------|
--L---------------8--|--L---------------10--|---L------------------|
---------------------|----------------------|-------------------6--|
---------------------|----------------------|-------------------4--|


  Q.     Q.     E   E       Q        E    E   E   Q     E    
-------------------13b--|---Lpbr----13b--13--11--------13b--|
------------------------|------------------------13---------|
------------------------|-----------------------------------|
------------------------|-----------------------------------|
--L------8--------------|-----------------------------------|
--L------6--------------|-----------------------------------|


                                         |---3---|                  
   E   E   Q      E   Q.         E   E   E   E   E   Q     E    E   
--13--11--13b----11-----------|---------------------11----13s--15--|
---------------------13\------|-------------11--13-----------------|
------------------------------|-----10--12-------------------------|
------------------------------|------------------------------------|
------------------------------|------------------------------------|
------------------------------|------------------------------------|


   tr      tr      tr      tr      tr      tr      tr      tr      
   E       E       E       E       E       E       E       E       
--15(18)--15(18)--15(18)--15(18)--15(18)--15(18)--15(18)--15(18)--|
------------------------------------------------------------------|
------------------------------------------------------------------|
------------------------------------------------------------------|
------------------------------------------------------------------|
------------------------------------------------------------------|


  H.           E  E     H.           E   E      H.           E  E   
---------------------|----------------------|----------------------|
---------------------|----------------------|----------------------|
--5---------------8--|--L---------------10--|---L------------------|
--5---------------8--|--L---------------10--|---L------------------|
---------------------|----------------------|-------------------6--|
---------------------|----------------------|-------------------4--|


  Q.     Q.     Q      
---------------------||
---------------------||
---------------------||
---------------------||
--L------8-----------||
--L------6-----------||




Duration Legend
---------------
W - whole
H - half
Q - quarter
E - 8th
S - 16th
T - 32nd
X - 64th
. - note dotted
|-n-|  - n-tuplets


Tablature Legend
----------------
L - tied note
x - dead note
g - grace note
(n) - ghost note
> - accentuded note
NH - natural harmonic
AH - artificial harmonic
TH - tapped harmonic
SH - semi harmonic
PH - pitch harmonic
h - hammer on
p - pull off
b - bend
br - bendRelease
pb - preBend
pbr - preBendRelease
brb - bendReleaseBend
\n/ - tremolo bar dip
\n - tremolo bar dive
-/n - tremolo bar Release up
/n\ - tremolo bar inverted dip
/n - tremolo bar return
-\n - tremolo bar Release down
S - shift slide
s - legato slide
/ -  slide into from below or out of upwards
\ -  slide into from above or out of downwards
~ - vibrato
W - wide vibrato
tr - trill
TP - tremolo picking
T - tapping
S - slap
P - pop
< - fade in
^ - brush up
v - brush down
comments
We did not receive enough feedback on this tab! Please rate:
print report bad tab
1 2 3 4 5
I want to post or [tab]
guest
You may want to rate the tab now too:
select rating
Please do not post tabs as comments. Select "correction" instead!