Oops, an error
Loading. Please wait.

Wild Eyed Southern Boys Tab

5,305 views 3 this week
2 commentsread comments
1 2 3 4 5
accurate
x 5
Autoscroll
+/-
esc
set tempo
stop
Contributor
Tabbers playing skills
advanced +
WARNING: You are trying to view
                                    content from Ultimate-Guitar.com
                                    in an unauthorized application,
                                    which is prohibited.

                                    Please use an official Ultimate
                                    Guitar Tabs application for iPhone,
                                    iPad or Android to access legitimate
                                    chords, guitar, bass, and drum tabs
                                    from Ultimate-Guitar.com database.

                                    Type "ultimate guitar tabs" in Apple
                                    App Store's or Android Market's
                                    search to find the application.
Band: .38 Special
Song: Wild-eyed Southern Boys
Album: Wild-eyed Southern Boys
Tuning: Standard
Transcribed by: aig91



     Here’s my attempt at figuring out Wild Eyed Southern Boys. 
I’m pretty sure that it’s correct for the most part. Most of 
the parts are there. The only thing missing is the outro solo.
I’m working on that and will edit that in when I work out a 
few tricky notes. But this is what I have for it and I hope 
that this can be helpful to someone. 



Legend:
h= hammer on
p= pull off
b= full bend
^= half bend
r= release bend
/= slide up
\= slide down
x= mute
~= vibrato



Intro: 


e|----------------------------------------------------|
B|-4/6\4----3--------4/6--4-----3---------6-----------|
G|-3/5\3----3-3h5----3/5----3-----3---3/5-------------|
D|------------3---------------3-----3-----------------|
A|----------------------------------------------------|
E|----------------------------------------------------|

e|----------------------------------------------------|
B|-4/6\4----3--------4/6--4-----3---------6-----------|
G|-3/5\3----3-3h5----3/5----3-----3---3/5-------------|
D|------------3---------------3-----3-----------------|
A|----------------------------------------------------|
E|----------------------------------------------------|
  

e|----------------------------------------------------|
B|-4/6\4----3--------4/6--4-----3---------6-----------|
G|-3/5\3----3-3h5----3/5----3-----3---3/5-------------|
D|------------3---------------3-----3-----------------|
A|----------------------------------------------------|
E|----------------------------------------------------|

e|----------------------------------------------------|
B|-4/6\4----3--------4/6--4-----3-----4/6~~-----------|
G|-3/5\3----3-3h5----3/5----3-----3---3/5~~-----------|
D|------------3---------------3-----3-----------------|
A|----------------------------------------------------|
E|----------------------------------------------------|



Intro Solo:

  Gtr 2
e|-----------------------------------------13-----------------------|
B|-16b~~----16b-16b-16---------------11/13----16-16b-16-13h16-16b~--|
G|---------------------15b-13---------------------------------------|
D|----------------------------15~-----------------------------------|
A|------------------------------------------------------------------|
E|------------------------------------------------------------------|

e|-----------------------------13-------------------|
B|-16b-16-13----------------------16-16b~~~---------|
G|-----------15b-13--------15b----------------------|
D|------------------15~-----------------------------|
A|--------------------------------------------------|
E|--------------------------------------------------|



Verse 1: 


e|----------------------------------------------------|
B|-4---3-----------------------4---3-------6----------|
G|-3---3---3h5-----------------3---3---3h5------------|
D|---------3---3-x--3-3--3-------------3--------------|
A|----------------------------------------------------|
E|----------------------------------------------------|

e|----------------------------------------------------|
B|-4---3-----------------------4--4--3--3-------6-----|
G|-3---3---3h5-----------------3--3--3--3---3h5-------|
D|---------3---3-x--3-3--3------------------3---------|
A|----------------------------------------------------|
E|----------------------------------------------------|

e|----------------------------------------------------|
B|-6---5----------------------6---5-------------------|
G|-5---5---5h7----------------5---5---7---------------| Gtr 1
D|---------5---5----------------------5---------------|
A|----------------------------------------------------|
E|----------------------------------------------------|
 |                                                    
e|----------------------------------------------------|
B|----------------------------------------------------|
G|----------------------------------------------------| Gtr 2
D|----------------------------------------------------| (Dist.)
A|----------------------------8---6---5---------------|
E|----------------------------6---6---6---------------|



Chorus:


e|--------------------------------3-------------------|
B|-6--6--4--4----4--4--3----6--6--3--4~---------------|
G|-5--5--3--3----3--3--3----5--5-----3~---------------|
D|---------------------3------------------------------|
A|----------------------------------------------------|
E|----------------------------------------------------|



Rhythm for solo 1:


e|----------------------------------------------------|
B|-4/6\4----3--------4/6--4-----3---------6-----------|
G|-3/5\3----3-3h5----3/5----3-----3---3/5-------------|
D|------------3---------------3-----3-----------------|
A|----------------------------------------------------|
E|----------------------------------------------------|



Solo 1:


e|----------------------------------------------------|
B|-16b~~---16b----------------------------------------|
G|-------------15-13----------------------------------|
D|-------------------15-------------15~~~-------------|
A|----------------------15-14-13----------------------|
E|-------------------------------13-------------------|



Verse 2: 

e|----------------------------------------------------|
B|-4---3-----------------------4---3-------6----------|
G|-3---3---3h5-----------------3---3---3h5------------| Gtr 1
D|---------3---3-x--3-3--3-------------3--------------|
A|----------------------------------------------------|
E|----------------------------------------------------|
 |
e|----------------------------------------------------|
B|----------------------------------------------------|
G|----------------------------------------------------| Gtr 2
D|----------------------------------------------------| (Dist.)
A|--------------------------------------------x-x-----|
E|--------------------------------------------x-x-13\-|


e|----------------------------------------------------|
B|-4---3-----------------------4---3-------6----------|
G|-3---3---3h5-----------------3---3---3h5------------| Gtr 1
D|---------3---3-x--3-3--3-------------3--------------|
A|----------------------------------------------------|
E|----------------------------------------------------|
 |
e|----------------------------------------------------|
B|----------------------------------------------------|
G|----------------------------------------------------| Gtr 2
D|----------------------------------------------------| (Dist.)
A|--------------------------------------------x-x-----|
E|--------------------------------------------x-x-13\-|


e|----------------------------------------------------|
B|-6---5----------------------6---5-------------------|
G|-5---5---5h7----------------5---5---7---------------| Gtr 1
D|---------5---5----------------------5---------------|
A|----------------------------------------------------|
E|----------------------------------------------------|
 |
e|----------------------------------------------------|
B|----------------------------------------------------|
G|----------------------------------------------------| Gtr 2
D|----------------------------------------------------| (Dist.)
A|----------------------------8---6---5---------------|
E|----------------------------6---6-------------------|



Chorus:


e|--------------------------------3-------------------|
B|-6--6--4--4----4--4--3----6--6--3--4~---------------|
G|-5--5--3--3----3--3--3----5--5-----3~---------------|
D|---------------------3------------------------------|
A|----------------------------------------------------|
E|----------------------------------------------------|



Solo 2:

Slow bend
  /--\
e|----------------------------------------------------|
B|----------------------------------------------------|
G|-7b~~~~~-7-5----------------------------------------|
D|-------------7-5---------5~~--------7-7-------7-7---|
A|-----------------7-6-5----------7/9-------7/9-------|
E|-----------------------8----------------------------|
                          
                        Pre-bend
                          /--\
e|-------------------------------------12b-12b-12~----|
B|------------------10-12-12brp10---10----------------|
G|-------------9-11-----------------------------------|
D|-11\9p7--/11----------------------------------------|
A|----------------------------------------------------|
E|----------------------------------------------------|
     
Pre-bend                         Pre-bend
  /--\                             /--\
e|-------------------------8-8--6---------------------|
B|---------------------/10--------8-------------------|
G|-7^r--5-5-5-5-5-5-5-5-------------7^--5---5~~-------|
D|----------------------------------------7-----------|
A|----------------------------------------------------|
E|----------------------------------------------------|

             Pre-bend                      Pre-bend
               /--\                          /--\
e|----------------------------------------------------|
B|----------------------6--------------13-15-15^rp13--|
G|-----5-5----5-7^rp5-----8-----12-14-----------------|
D|-5/7------7---------7-----/14-----------------------|
A|----------------------------------------------------|
E|----------------------------------------------------|


e|-----------------15b-15b-15b-15~~-------------------|
B|(13)-13--15--13-------------------------------------|
G|---14--14--14---------------------------------------|
D|----------------------------------------------------|
A|----------------------------------------------------|
E|----------------------------------------------------|



Bridge:


e|----------------------------------------------------|
B|-4---3-------------4-----3---------6----------------|
G|-3---3---5-----------3-----3---3/5------------------|
D|---------3-------------3-----3----------------------|
A|----------------------------------------------------|
E|----------------------------------------------------|

e|----------------------------------------------------|
B|-4---3-------------4---3-------6--------------------|
G|-3---3---5---------3---3---3h5----------------------|
D|---------3-----------------3------------------------|
A|----------------------------------------------------|
E|----------------------------------------------------|



Verse 3:


e|----------------------------------------------------|
B|-4--4--3--3----------------------4--4--3--3------6--|
G|-3--3--3--3--3h5-----------------3--3--3--3--3h5----| Gtr 1
D|-------------3---3-x--3-3--3-----------------3------|
A|----------------------------------------------------|
E|----------------------------------------------------|
 |              Pre-bend
 |                /--\
e|----------------------------------------------------|
B|----------------------------------------------------|
G|-----------------3br--1-----------------------------| Gtr 2
D|------------------------3--3~~----------------------| (Dist.)
A|----------------------------------------------------|
E|----------------------------------------------------|


e|----------------------------------------------------|
B|-4--4--3--3----------------------4--4--3--3------6--|
G|-3--3--3--3--3h5-----------------3--3--3--3--3h5----| Gtr 1
D|-------------3---3-x--3-3--3-----------------3------|
A|----------------------------------------------------|
E|----------------------------------------------------|
 |              Pre-bend
 |                /--\
e|----------------------------------------------------|
B|----------------------------------------------------|
G|-----------------3br-1h2----------------------------| Gtr 2
D|-------------------------3--3-----------------------| (Dist.)
A|----------------------------------------------------|
E|----------------------------------------------------|


e|----------------------------------------------------|
B|-6--6--5--5----------------------6-----5------------|
G|-5--5--5--5--5h7-----------------5-----5-----7------| Gtr 1
D|-------------5---5-x--5-5--5-----------------5------|
A|----------------------------------------------------|
E|----------------------------------------------------|
 |              Pre-bend
 |                /--\
e|----------------------------------------------------|
B|----------------------------------------------------|
G|-----------------5brp3---3--------------------------| Gtr 2
D|-----------------------5---5~\----------------------| (Dist.)
A|----------------------------------------------------|
E|----------------------------------------------------|


Chorus (Rythym):


e|--------------------------------3-------------------|
B|-6--6--4--4----4--4--3----6--6--3-6-4----4--4--3----|
G|-5--5--3--3----3--3--3----5--5------3----3--3--3----|
D|----------------------------------------------------|
A|----------------------------------------------------|
E|----------------------------------------------------|

e|---------------------------------3------------------|
B|-6--6--4-x-4----4--4--3----6--6--3-6-4----4--4--3---|
G|-5--5--3-x-3----3--3--3----5--5------3----3--3--3---|
D|----------------------------------------------------|
A|----------------------------------------------------|
E|----------------------------------------------------|

e|---------------------------------3------------------|
B|-6--6--4-4-4----4--4--3----6--6--3-6-4----4--4--3---|
G|-5--5--3-3-3----3--3--3----5--5------3----3--3--3---|
D|----------------------------------------------------|
A|----------------------------------------------------|
E|----------------------------------------------------|

e|----------------------------------------------------|
B|-6--8----8--9~--------------------------------------|
G|-5--7----7--8~--------------------------------------|
D|----------------------------------------------------|
A|----------------------------------------------------|
E|----------------------------------------------------|



Chorus (Lead):


e|----------------------------------------------------|
B|--------------------------------18---18--18---------|
G|-/15~~~--17b-17b-17br-15~~---17b--17b--17--17br-15~~|
D|----------------------------------------------------|
A|----------------------------------------------------|
E|----------------------------------------------------|

e|----------------------------------------------------|
B|----------------------------------------------18b---|
G|-17b-17b-17b-17b^-17b-17-15~~-----15~~-15~-15-------|
D|-------------------------------17-------------------|
A|----------------------------------------------------|
E|----------------------------------------------------|

Pre-bend
  /--\
e|----------------------------------------------------|
B|---------------18~------18~-------18~---------------|
G|-17^br-15--17b~-----17b~-----17b~-----rp15~~--------|
D|----------------------------------------------------|
A|----------------------------------------------------|
E|----------------------------------------------------|

e|----------------------------------------------------|
B|-------------------------18b------------------------|
G|----15~~-----17b-17brp15-----17brp15~~------15~~----|
D|-17-------17-----------------------------17---------|
A|----------------------------------------------------|
E|----------------------------------------------------|

e|----------------------------------------------------|
B|----------------------------------------------------|
G|----15~~---15-18-15-17-15----15-18-15-17-15-17b-----|
D|-17------17---------------17------------------------|
A|----------------------------------------------------|
E|----------------------------------------------------|

e|----------------------------------------------------|
B|----------------------------------6---8-----8----9--|
G|-17brp15-17b-17brp15--15~~\\------8b--10b---10b--11b|
D|----------------------------------------------------|
A|----------------------------------------------------|
E|----------------------------------------------------|



Outro Rhythm:

e|----------------------------------------------------|
B|-4/6\4----3--------4/6--4-----3---------6-----------|
G|-3/5\3----3-3h5----3/5----3-----3---3/5-------------|
D|------------3---------------3-----3-----------------|
A|----------------------------------------------------|
E|----------------------------------------------------|

e|----------------------------------------------------|
B|-4/6\4----3--------4/6--4-----3---------6-----------|
G|-3/5\3----3-3h5----3/5----3-----3---3/5-------------|
D|------------3---------------3-----3-----------------|
A|----------------------------------------------------|
E|----------------------------------------------------|
  

e|----------------------------------------------------|
B|-4/6\4----3--------4/6--4-----3---------6-----------|
G|-3/5\3----3-3h5----3/5----3-----3---3/5-------------|
D|------------3---------------3-----3-----------------|
A|----------------------------------------------------|
E|----------------------------------------------------|

e|----------------------------------------------------|
B|-4/6\4----3--------4/6--4-----3---------6-----------|
G|-3/5\3----3-3h5----3/5----3-----3---3/5-------------|
D|------------3---------------3-----3-----------------|
A|----------------------------------------------------|
E|----------------------------------------------------|

e|----------------------------------------------------|
B|-4/6\4----3--------4/6--4-----3---------6-----------|
G|-3/5\3----3-3h5----3/5----3-----3---3/5-------------|
D|------------3---------------3-----3-----------------|
A|----------------------------------------------------|
E|----------------------------------------------------|
  

e|----------------------------------------------------|
B|-4/6\4----3--------4/6--4-----3---------6-----------|
G|-3/5\3----3-3h5----3/5----3-----3---3/5-------------|
D|------------3---------------3-----3-----------------|
A|----------------------------------------------------|
E|----------------------------------------------------|

e|----------------------------------------------------|
B|-4/6\4----3--------4/6--4-----3---------6-----------|
G|-3/5\3----3-3h5----3/5----3-----3---3/5-------------|
D|------------3---------------3-----3-----------------|
A|----------------------------------------------------|
E|----------------------------------------------------|

e|----------------------------------------------------|
B|-4/6\4----3--------4/6--4-----3---------6-----------|
G|-3/5\3----3-3h5----3/5----3-----3---3/5-------------|
D|------------3---------------3-----3-----------------|
A|----------------------------------------------------|
E|----------------------------------------------------|
  

*Fade Out*
comments
print report bad tab
2 comments total.
0 reply
LedDaveZeppelin wrote on September 22 2008, 03:31 pm

very Good tab. Your hard work payed off.

0 reply
marshmellow666 wrote on January 5 2009, 11:04 pm

woo!

my girlfriend loves this band

nice tab

I want to post or [tab]
guest
You may want to rate the tab now too:
select rating
Please do not post tabs as comments. Select "correction" instead!