Oops, an error
Loading. Please wait.

Away From The Sun Tab

ver1
ver1

Intro

Album

Interactive

Video

More versions @911Tabs.com
26,469 views 12 this week
4 commentsread comments
1 2 3 4 5
accurate
x 13
Autoscroll
+/-
esc
set tempo
stop
Contributor
Hey! There's an official Ultimate Guitar app which is ideal
for learning songs when you're away from computer. Get the app
WARNING: You are trying to view
                                    content from Ultimate-Guitar.com
                                    in an unauthorized application,
                                    which is prohibited.

                                    Please use an official Ultimate
                                    Guitar Tabs application for iPhone,
                                    iPad or Android to access legitimate
                                    chords, guitar, bass, and drum tabs
                                    from Ultimate-Guitar.com database.

                                    Type "ultimate guitar tabs" in Apple
                                    App Store's or Android Market's
                                    search to find the application.
Band- 3 Doors Down
Album- Away From The Sun

1.When I'm Gone
2.Away From The Sun
3.The Road I'm On
4.Ticket To Heaven
5.Running Out Of Days
6.Here Without You
7.I Feel You
8.Dangerous Game
9.Changes
10.Going Down In Flames
11.Sarah Yellin'

1.WHEN I'M GONE

Standard Tuning: EADGBe

INTRO

  Gtr. 1 - Clean w/ reverb
e|-------------------------------------------------|
B|---------0h1-----1p0---0h1----------0h1-0--3>----|
G|-------2-----2-------2---------------------0>----|
D|-----2---------2-----------------2---------2>----|
A|-0>----------------------------3-----------3>----|
E|-------------------------------------------------|
 |
 |
#| 1       2       3     4       1    2      3   4
 |
 |Gtr. 2 - Clean (no reverb)
e|---------------------------0-1-3---5>------------|
B|-------------------------------------------------|
G|-------------------------------------------------|
D|-------------------------------------------------|
A|-------------------------------------------------|
E|-------------------------------------------------|

e|-------------------------------------------------------------|
B|---------0h1-----3------1-----0h1---------0h1-0--3>------1p0-|
G|-------2-----2-----2------2----------------------0>----------|
D|-----2---------2-----2------2---------2----------2>----2-----|
A|-0--------------------------------3--------------3>----------|
E|-------------------------------------------------------------|
 |
 |
#| 1       2       3      4         1       2      3       4
 |
 |
e|---------5p4--2--4----5/7---------5--------------4-------2---|
B|-------------------------------------------------------------|
G|-------------------------------------------------------------|
D|-------------------------------------------------------------|
A|-------------------------------------------------------------|
E|-------------------------------------------------------------|


VERSE 1

  Gtr. 1
e|----------------0>-------------------------------------------------------------|
B|----------------1>---------------------------------------1---------------------|
G|--------2-------2>---------------------------------------0--------4------------|
D|--------2-------2>---------------------------------------2--------5------------|
A|--------0-------0>-------------------------0-2-3---------3--------5------------|
E|--------x---------------------------------------------------------3------------|
          1	2          3         4         1         2        3     4

Play through 4 times.

PRE-CHORUS

e|-------------------------------------------------------------------------------|
B|---------0h1--3-------------0h1--0-------------0h1--3-------------0h1--0>------|
G|---2---2--------------2---2--------------2---2--------------2---2---------4/54-|
D|--------------------------------------------------------------------------4/54-|
A|--------------------------------------------------------------------------2/32-|
E|-------------------------------------------------------------------------------|

#    1     2    3   4   1     2    3   4   1     2    3   4   1     2    3  4

Into Chorus

CHORUS

  Gtr. 1 (w/ Distortion)
e|-------------------------------------------------------------------------------|
B|-1----1m--------x-1--------1m--------------------------------------------------|
G|-2----2m--------x-2--------2m---x-4/5--------7----7m-------------------x-4/54--|
D|-2----2m--------x-2--------2m---x-4/5--------7----7m-------x-5---5m----x-4/54--|
A|-0----0m--------x-0--------0m---x-2/3--------5----5m-------x-5---5m----x-2/32--|
E|-x----x---------x-x--------x-----------------x----x--------x-3---3m------------|

   1      2            3            4          1      2          3         4

* m - mute these chords with your palm right after you play them

Play through 4 times.

POST CHORUS

  Gtr. 1 - Slight distortion
e|--------------------------------------------------------------------|
B|---1>-----------------------------1>--------------------------------|
G|---2>-----------------------------2>--------------------------------|
D|---2>---------------------5-------2>-------------------------5------|
A|---0>---------0h2-3>------5-------0>----------0h2-3----------5------|
E|---x----------------------3-------x--------------------------3------|
 |
 |
#|   1  2  3  4     1   2   3   4   1  2  3  4      1   2      3  4
 |
 |Gtr. 2 - Slight Distortion
e|--------------------------------------------------------------------|
B|----------------0-1-------0---------------------0-1-----------------|
G|---2~~~>----2h3-------------------2~~~>-----2h3-------2^p0---0------|
D|-----------------------------------------------------------2--------|
A|--------------------------------------------------------------------|
E|--------------------------------------------------------------------|

Into:

VERSE 2

  Gtr. 1 - Very soft. (This section is mostly Bass with Gtr. 2 in the background.)
e|----------------0>-------------------------------------------------------------|
B|----------------1>---------------------------------------1---------------------|
G|--------2-------2>---------------------------------------0--------4------------|
D|--------2-------2>---------------------------------------2--------5------------|
A|--------0-------0>-------------------------0-2-3---------3--------5------------|
E|--------x---------------------------------------------------------3------------|

          1	2          3         4         1         2        3     4

Play through 3 times, then play:
                                                    Louder------------------------|  Dist.
e|----------------0>--------------------------------------------------------------|
B|----------------1>------------------------------------1-------------------------|
G|--------2-------2>------------------------------------0------x-4------x-4/54----|
D|--------2-------2>------------------------------------2------x-5------x-4/54----|
A|--------0-------0>----------------------0-2-3---------3------x-5------x-2/32----|
E|--------x----------------------------------------------------x-3----------------|

          1	2        3         4        1         2        3        4


* Gtr. 2 is extremely difficult to make out in this section because there\'s a lot
of reverb and it\'s drowned out, but he\'s basically just playing around on the top
strings in Am. Just improv it and it\'ll sound good.

Play CHORUS

BRIDGE

e|---------------------------------------------------------------------|
B|---------------------------------------------------------------------|
G|--2--x-x-4/5--x-x-5/7--x-x-7/97---2--x-x-4/5--x-x-5/7--x-x-----------|
D|--2--x-x-4/5--x-x-5/7--x-x-7/97---2--x-x-4/5--x-x-5/7--x-x--5--4--2--| x 2
A|--0--x-x-2/3--x-x-3/5--x-x-5/75---0--x-x-2/3--x-x-3/5--x-x--5--4--2--|
E|-------------------------------------------------------------3--2--0-|
						        P.M.--->
    1      2        3        4       1      2        3         4

  Gtr. 1
e|-------------------------------------------------------------------------------|
B|-------------------------------------------------------------------------------|
G|--2>---------------------------------------------------------------------------|
D|--2>---------------------------------------------------------------------------|
A|--0>---------------------------------------------------------------------------|
E|-------------------------------------------------------------------------------|
 |  * Hold this chord until the solo.
 |
 |  1     2    3   4   1     2    3   4   1     2    3   4   1     2    3      4
 |
 |Gtr. 2 - Clean w/ Reverb
e|-------------------------------------------------------------------------------|
B|--------0h1--3-------------0h1--0-------------0h1--3-------------0h1--0>-------|
G|--2---2--------------2---2--------------2---2--------------2---2---------------|
D|-------------------------------------------------------------------------------|
A|-------------------------------------------------------------------------------|
E|-------------------------------------------------------------------------------|

SOLO

(Gtr. 1 plays CHORUS during the solo)

  Gtr. 2
e|--------------------------------------------------------------------------------|
B|----------------------------------------------------------------1^--------0h1p0-|
G|-2~~~-2-0-2~~-2~~--2~~--2------------------------------2-2-2-2-----2-2--2-------|
D|--------------------------1p0---------------------------------------------------|
A|------------------------------3~~--2-2h3p2--0-0-2^-0----------------------------|
E|--------------------------------------------------------------------------------|
   1    2    3  4    1      2    3     4      1   2  3 4 1        2    3    4

e|-----------------------------------------------------3^^-3----6^^-6---10^--17^^>|
B|----------------------------3^-3----4^^4^4^4^4^-4-------------------------------|
G|-4^^-2-----3/4^^-2--------------------------------------------------------------|
D|--------------------------------------------------------------------------------|
A|--------------------------------------------------------------------------------|
E|--------------------------------------------------------------------------------|
                                    Bend.......release.

* Hold the final bend in the solo well into the final chorus.

Play CHORUS, into:

OUTTRO

  Gtr. 1
e|------------------------------------------------------------------------|
B|---1>-------------------------------1>----------------------------------|
G|---2>-------------5-----------------2>-----------------5----------------|
D|---2>-------------5------x-5>-------2>-----------------5------x-5>------| x 2
A|---0>---------0h2-3------x-5>-------0>----------0h2-3--3------x-5>------|
E|---x---------------------x-3>-------x-------------------------x-3>------|


End on

e|--------|
B|---1>---|
G|---2>---|
D|---2>---|
A|---0>---|
E|--------|

2.AWAY FROM THE SUN

-Intro-
Gtr. 1(clean, for the best sound use some Chorus Effect)
e|-----------------|-----------------|-----------------|--------------0--|
B|---1-----1-----1-|---1-----0h1---1-|---1-----1-----1-|---1-----0--3----|
G|-----2-----2-----|-----0-------0---|-----0-----0-----|-----0-----------|
D|-3-----3-----3---|-2-----2---------|-----------------|-----------------|
A|-----------------|-----------------|-3-----3-----3---|-2-----2---------|
E|-----------------|-----------------|-----------------|-----------------|

Gtr. 2 - plays nothing

Gtr. 1
e|-----------------|-----------------|-----------------|-----------------|
B|---1-----1-----1-|---1-----0h1---1-|---3---1---0-----|---3---1---0---1-|
G|-----2-----2-----|-----0-------0---|-----0---0---(0)-|-----0---0---0---|
D|-3-----3-----3---|-2-----2---------|-----------------|-----------------|
A|-----------------|-----------------|-----------------|-----------------|
E|-----------------|-----------------|-3---------------|-3---------------|

Gtr. 2
e|-----------------|-----------------|-----------------|-----------------|
B|-1---------------|-1---------------|-----------------|-----------------|
G|-2---------------|-0---------------|-----------------|-----------------|
D|-3---------------|-2---------------|-----------------|-----------------|
A|-3---------------|-3---------------|-----------------|-----------------|
E|-----------------|-----------------|-----------------|-----------------|

-Verse-
Gtr.1(clean, for the best sound use some Chorus Efect)
e|-----------------|-----------------|-----------------|--------------0--|
B|---1-----1-----1-|---1-----0h1---1-|---1-----1-----1-|---1-----0--3----|
G|-----2-----2-----|-----0-------0---|-----0-----0-----|-----0-----------|
D|-3-----3-----3---|-2-----2---------|-----------------|-----------------|
A|-----------------|-----------------|-3-----3-----3---|-2-----2---------|
E|-----------------|-----------------|-----------------|-----------------|

Gtr.2
e|-----------------|-----------------|-----------------|--------------0--|
B|-1---------------|-1---------------|---1-------------|---1----0-1-3----|
G|-2---------------|-0---------------|-----------------|-----------------|
D|-3---------------|-2---------------|-----------------|-----------------|
A|-3---------------|-3---------------|-3---------------|-2---------------|
E|-----------------|-----------------|-----------------|-----------------|

Gtr.1
e|-----------------|-----------------|-----------------|-----------------|
B|---1-----1-----1-|---1-----0h1---1-|---3---1---0-----|---3---1---0---1-|
G|-----2-----2-----|-----0-------0---|-----0---0---(0)-|-----0---0---0---|
D|-3-----3-----3---|-2-----2---------|-----------------|-----------------|
A|-----------------|-----------------|-----------------|-----------------|
E|-----------------|-----------------|-3---------------|-3---------------|

Gtr.2
e|-----------------|-----------------|-----------------|-----------------|
B|---1-------------|---1-------------|---3--1--0-------|---3--1--0--1----|
G|-----------------|-----------------|-----------------|-----------------|
D|-3---------------|-2---------------|-----------------|-----------------|
A|-----------------|-----------------|-----------------|-----------------|
E|-----------------|-----------------|-----------------|-----------------|

-Chorus-
Both gtrs. (Distortion)
   * * (*=palm muting)
e|-----|----------------|---------------|----------------|---------------|
B|-----|----------------|---------------|----------------|---------------|
G|-----|-5------0-----0-|--------0------|--------0-----0-|---------------|
D|-3-3-|-5----2-----0---|-3----2---0----|-3----2-----0---|-3------0------|
A|-3-3-|-3--3-----2-----|-3--3-------3--|-3--3-----2-----|-3--2-3--------|
E|-1-1-|----------------|-1-------------|-1--------------|-1--------3----|

-Interlude-
Gtr.1 (clean)
e|-5/-----5----7~--------8~--------8----7-----8/10-10-10\8-8-8/10--------|
B|-----------------------------------------------------------------------|
G|-----------------------------------------------------------------------|
D|-----------------------------------------------------------------------|
A|-----------------------------------------------------------------------|
E|-----------------------------------------------------------------------|

Gtr.2 (distortion)
e|-----------------------------------------------------------------------|
B|-----------------------------------------------------------------------|
G|-2------2----4---------5---------5\4-----------------------------------|
D|-2------2----4---------5---------5\4--5--------------------------------|
A|-0------0----2---------3---------3\2--5--------------------------------|
E|--------------------------------------3--------------------------------|

-Outro-
Gtr.1 (clean)
e|-5/-----5----7~--------8~--------8--7-----------------------------------|
B|------------------------------------------------------------------------|
G|------------------------------------------------------------------------|
D|------------------------------------------------------------------------|
A|------------------------------------------------------------------------|
E|------------------------------------------------------------------------|

Gtr.2 (distortion)
e|------------------------------------------------------------------------|
B|------------------------------------------------------------------------|
G|-2------2----4---------5---------5\4------------------------------------|
D|-2------2----4---------5---------5\4--5---------------------------------|
A|-0------0----2---------3---------3\2--5---------------------------------|
E|--------------------------------------3---------------------------------|

3.THE ROAD I'M ON

Intro/Verse
|--------------------------------0--------------------------------------0--|
|-----------------1p0------------1--------------------------------1p0---1--|
|---------------------------2----0--------------------------------------2--|
|-----2-------0-------------2----2------------------2---------0---------2--|
|---2-------2-------------0------3----3p2p0------2----------2-----------0--|
|-0-------3--------------------------------h3p0-----------3----------------|
chorus\bridge
|--------------------------------------------------------|
|--------------------------------------------------------|
|--------------------------------------------------------|
|----------------2-2-2--5-5-5-5-9-9--7-7--7--5--5--2--2--|
|-2-2--5-5-5-5---0-0-0--3-3-3-3-7-7--5-5--5--3--3--0--0--|
|-0-0--3-3-3-3-------------------------------------------|

4.TICKET TO HEAVEN

-Intro- Part 1

Gtr. 1 (Clean)

e|------0------3--|---------------------------|---------------------|-----------------|
B|-----1------3---|--------3-0---------0------|---------------------|-----------------|
G|----0------2----|----------------------2-0--|-------------------0-|-----------------|
D|---2------0-----|--0/2-2-------0/2-2--------|----2h4-4----2h4-4---|-----------------|
A|--3-------------|---------------------------|--3--------3---------|-----------------|
E|----------------|---------------------------|---------------------|-----------------|

Gtr.2 (Clean)

e|----------------|---------------------------|-----------0----------|-----------------|
B|----------------|---------------------------|-------------0--------|-----------------|
G|----------------|---------------------------|-----------------0----|-----------------|
D|----------------|---------------------------|----------------------|-----------------|
A|----------------|---------------------------|----------------------|-----------------|
E|----------------|---------------------------|----------------------|-----------------|

-Intro- Part 2

Gtr.1 (Clean)
e|----------------------0-0---------0-----|----------0-------------|
B|--------3-0---------3-----3-0-0h3---0-0-|--------3---0-0---------|
G|----------------------------------------|------------------------|
D|--0/2-2-------0/2-2---------------------|------------------------|
A|----------------------------------------|------------------------|
E|----------------------------------------|------------------------|

Gtr.2 (Clean)

e|----------------------0-0---------0-----|-----------0------------|
B|--------------------3-----3-0-0h3---0-0-|---------3---0-0--------|
G|----------------------------------------|------------------------|
D|----------------------------------------|------------------------|
A|----------------------------------------|------------------------|
E|----------------------------------------|------------------------|

-Verse-

Gtr.1 (Clean)

e|---------------------------|---------------------|-----------------|
B|--------3-0---------0------|---------------------|-----------------|
G|----------------------2-0--|-------------------0-|-----------------|
D|--0/2-2-------0/2-2--------|----2h4-4----2h4-4---|-----------------|
A|---------------------------|--3--------3---------|-----------------|
E|---------------------------|---------------------|-----------------|

Gtr.2 (Clean)
e|---------------------------|---------------------|-----------------|
B|---------------------------|-----------0---------|-----------------|
G|---------------------------|---------------------|-----------------|
D|---------------------------|---------------------|-----------------|
A|---------------------------|---------------------|-----------------|
E|---------------------------|---------------------|-----------------|

Gtr.1 (Clean)
e|----------------------0-0-----|------------------------|
B|--------3-0---------3-----3-0-|------------------------|
G|------------------------------|------------------0-----|
D|--0/2-2-------0/2-2-----------|----2h4-4---2h4-4-------|
A|------------------------------|--3-------3-------------|
E|------------------------------|------------------------|

Gtr.2 (Clean)

e|------------------------------|------------------------|
B|------------------------------|-----------0------------|
G|------------------------------|------------------------|
D|------------------------------|------------------------|
A|------------------------------|------------------------|
E|------------------------------|------------------------|

-Interlude-

Gtr.1 (Clean)

e|-----0-----------|-----0-------------|--------------------|-----0------------|----3-----------|
B|----3------------|----1--------------|-3-0---0---0-3--0---|----1-------------|---3------------|
G|---2-------------|---0---------------|-----0---0--------0-|---0--------------|--2-------------|
D|--0--------------|--2----------------|--------------------|--2---------------|-0--------------|
A|-----------------|-3-----------------|--------------------|-3----------------|----------------|
E|-----------------|-------------------|--------------------|------------------|----------------|

Gtr.2 (Clean)

e|-----0-----------|-----0-------------|------3-------------|-----0------------|----3-----------|
B|----3------------|----1--------------|-----3--------------|----1-------------|---3------------|
G|---2-------------|---0---------------|----0---------------|---0--------------|--2-------------|
D|--0--------------|--2----------------|---0----------------|--2---------------|-0--------------|
A|-----------------|-3-----------------|--2-----------------|-3----------------|----------------|
E|-----------------|-------------------|-3------------------|------------------|----------------|

-Chorus-

Both Gtrs. (Distortion)
                                     * *
e|-------------|----------------|-------------|-------------------|
B|-------------|----------------|-------------|-------------------|
G|-------------|-------------2--|--5--5-5--5--|--5--4-5--7-7-(7)--|
D|--2-------2--|--5---4--5---2--|--5--5-5--5--|--5--4-5--7-7-(7)--|
A|--2-------2--|--5---4--5---0--|--3--3-3--3--|--3--2-3--5-5-(5)--|
E|--0-------0--|--3---2--3------|-------------|-------------------|

       * *                            * *
e|-------------|----------------|-------------|-------------------|
B|-------------|----------------|-------------|-------------------|
G|-------------|-------------2--|--5--5-5--5--|--5--4-------------|
D|--2--2-2--2--|--5---4--5---2--|--5--5-5--5--|--5--4--5--4---(2)-|
A|--2--2-2--2--|--5---4--5---0--|--3--3-3--3--|--3--2--5--4---(2)-|
E|--0--0-0--0--|--3---2--3------|-------------|--------3--2---(0)-|


-Solo-

Gtr.1 (Distortion, wah)

e|-------------------------------------------------------------------------------|
B|-------------------------------------------------------------------------------|
G|-------------------------------------------------------------------------------|
D|-11b-----------------------------------------------------14b-12p11-12-12-12\11-|
A|-----14-12b-9/12-12///-12/14-14-14-14-14/16-16-16-16/17------------------------|
E|-------------------------------------------------------------------------------|

-----------------------------------------|
-----------------------------------------|
-----------------------------------------|
-12-12-12\11-11/12-11-9---9/11-11b-9-9-9-|
-----------------------------------------|
-----------------------------------------|


Gtr.2 (Distortion)

e|-------------------------------------------------------------------------|
B|-------------------------------------------------------------------------|
G|-------------7----5----7-----------7----5--------5-5-5-5--5-5-5-5--------|
D|-2-----------7----5----7----2------7----5--------5-5-5-5--5-5-5-5--------|
A|-2-----------5----3----5----2------5----3--------3-3-3-3--3-3-3-3--------|
E|-0--------------------------0--------------------------------------------|

-Outro-

Gtr.1 (Distortion)

e|--------------------------------------------------------|
B|--------------------------------------------------------|
G|-------------7----5-----------------------------7-------|
D|-2-----------7----5-----------------------------7----2--|
A|-2-----------5----3-----------------------------5----2--|
E|-0---------------------------------------------------0--|

5.RUNNING OUT OF DAYS

Intro-

e------------------------0-----------------------0------------|
B------------------------0---------3-------------0--------3---|
G----------------------------1h2-----2--------------1h2-------|
D---7--6-----------2-----------------------2------------------|
A----------5--4----2-----------------------2------------------|
E-------------------0----------------------0------------------|

e-------0----------------------0-------------------------------|
B-------0---------3------------0-------------------------------|
G-----------1h2-----2------------------------------------------|
D---2----------------------2--------7--6----------2------------|
A---2----------------------2---------------5--4---2------------|
E---0----------------------0----------------------0------------|

Verse-
Note for this part I'll give the octaves to play for the verse, but just plug in where they go.
They are in the correct order.
e------------------------------------------------|
B------------------------------------------------|
G---13---13/14-----13/16----16/18----------------|
D------------------------------------------------|
A---11---11/12-----11/14----14/16----------------|
E------------------------------------------------|

1st Chorus-

e--------------------|
B--------------------|
G---4--------2-------|
D---4--------2-------|
A---2--------0-------|
E--------------------|

e-------0------------------0-------------|
B-------0-------3----------0--------3----|
G----------1h2----2-----------1h2--------|
D---2-------------------2----------------|
A---2-------------------2----------------|
E---0-------------------0----------------|

e-----------------------------------|
B-----------------------------------|
G---4--------2----------------------|
D---4--------2------7--6------------|
A---2--------0-------------5--4-----|
E-----------------------------------|

e------0-----------------------0--------------|
B------0---------3-------------0--------3-----|
G----------1h2-----2--------------1h2---------|
D---2-----------------------2-----------------|
A---2-----------------------2-----------------|
E---0-----------------------0-----------------|

e-------0--------------------------------------------|
B-------0---------3----------------------------------|
G-----------1h2-----2--------------------------------|
D---2----------------------2--------7--6----------2--|
A---2----------------------2---------------5--4---2--|
E---0----------------------0----------------------0--|

2nd Chorus-

e--------------------|
B--------------------|
G---4--------2-------|
D---4--------2-------|
A---2--------0-------|
E--------------------|

e-------0------------------0-------------|
B-------0-------3----------0--------3----|
G----------1h2----2-----------1h2--------|
D---2-------------------2----------------|
A---2-------------------2----------------|
E---0-------------------0----------------|

e-----------------------------------|
B-----------------------------------|
G---4--------2----------------------|
D---4--------2------7--6------------|
A---2--------0-------------5--4-----|
E-----------------------------------|

Breakdown-

e------------------------------------|
B------------------------------------|
G---------9--9-----12---11----14-----|
D---------9--9-----12---11----14-----|
A---------7--7-----10---9-----12-----|
E---x--x-----------------------------|

e-------------------------------------|
B-------------------------------------|
G---------9--9-----7---6----7---------|
D---------9--9-----7---6----7---------|
A---------7--7-----5---4----5---------|
E---x--x------------------------------|

On the fourth time the second part goes like this,

e----------------------------------------|
B----------------------------------------|
G---------9--9-----7---6----2------------|
D---------9--9-----7---6----2------------|
A---------7--7-----5---4----0------------|
E---x--x---------------------------------|

Quiet Chorus:

e---0-------0-----|
B---0-------0-----|
G---8-------6-----|
D---9-------7-----|
A---9-------7-----|
E---7-------5-----|

e-----------------------------|
B-----------------------------|
G---13--13/14--14--14/13--13--|
D-----------------------------|
A---11--11/12--12--12/11--11--|
E-----------------------------|

e---0-------0-----|
B---0-------0-----|
G---8-------6-----|
D---9-------7-----|
A---9-------7-----|
E---7-------5-----|

Final Chorus:

e------------------------0-----------------------0------------|
B------------------------0---------3-------------0--------3---|
G----------------------------1h2-----2--------------1h2-------|
D---7--6-----------2-----------------------2------------------|
A----------5--4----2-----------------------2------------------|
E------------------0-----------------------0------------------|

e--------------------|
B--------------------|
G---4--------2-------|
D---4--------2-------|
A---2--------0-------|
E--------------------|

e-------0------------------0-----------------|
B-------0-------3----------0-----------------|
G----------1h2----2--------------------------|
D---2-------------------2-------7--6---------|
A---2-------------------2--------------5--4--|
E---0-------------------0--------------------|

e--------------------|
B--------------------|
G---4--------2-------|
D---4--------2-------|
A---2--------0-------|
E--------------------|

e--------------------|
B--------------------|
G---4--------2-------|
D---4--------2-------|
A---2--------0-------|
E--------------------|

e-------0------------------0-----------------|
B-------0-------3----------0-----------------|
G----------1h2----2--------------------------|
D---2-------------------2-------7--6---------|
A---2-------------------2--------------5--4--|
E---0-------------------0--------------------|

Ends on these three,

e-----------------------------|
B-----------------------------|
G---4--------2----------------|
D---4--------2-------2--------|
A---2--------0-------2--------|
E--------------------0--------|

6.HERE WITHOUT YOU

Main riff

e--------------------------------------------------|
B------3----2---2--3---------------------2---------|
G-----4-4----4---4--4---------0--------2--2--------|
D----4---4----4------4------0---0-----2----2-------|
A---2-----------------0---2------0---0------0------|
E------------------------3-------------------------|


e--------------------------------------------------|
B------3---2--2--3---------2---3---2--3/5----------|
G-----4-4---4--4--4-------2--2--2---2--------------|
D----4---4---4-----4-----2----2--2-----------------|
A---2---------------2---0--------------------------|
E--------------------------------------------------|

Chorus

e------0----2/2-----3-2-0---------5/5---3---2--0---|
B-----3--3----------------3----2-------------------|
G----2----2------2------------2-2-----2---2---2--0-|
D---0------------------------2---------------------|
A---------------------------0----------------------|
E--------------------------------------------------|

e-------------0/0----0-----------------------------|
B-------3---------3---3----------------------2-----|
G------4--4--------4---4-----0------------2---2----|
D-----4----4------------0---0-------2/2--2-2---2---|
A---2--------------------------2--0-0/0------------|
E-------------------------3------------------------|

7.I FEEL YOU

-----------------|-----------------|-----------------|-----------------|------|
-----------------|-----------------|-----------------|-----------------|------|
---------0-------|-------------0---|---------0-------|-------------2---|------|
-----2-----0---0-|-----0---------0-|-----2-----0---0-|-----0---------0-|------|
---2---2---------|---4-------2-----|---2---2---------|---4-------2-----|---2--|
-0---------------|-5-------3-------|-0---------------|-5-------3-------|-0----|
 Intro:

-------------|-----------------|-----------------|------------------|---------|
-------------|-----------------|-----------------|------------------|---------|
-----0-------|-------------0---|---------0-------|---------0-2b-2-0-|---------|
-2-----0---0-|-----0---------0-|-----2-----0---0-|-----0------------|-----2---|
---2---------|---4-------2-----|---2---2---------|---4--------------|---2---2-|
-------------|-5-------3-------|-0---------------|-5----------------|-0-------|


----------|-----------------|-----------------|-----------------|-------------|
----------|-----------------|-----------------|-----------------|-------------|
--0-------|-------------0---|---------0-------|-------------2---|---------0---|
----0---0-|-----0---------0-|-----2-----0---0-|-----0---------0-|-----2-----0-|
----------|---4-------2-----|---2---2---------|---4-------2-----|---2---2-----|
----------|-5-------3-------|-0---------------|-5-------3-------|-0-----------|


------|-----------------|-----------------|------------------|----------------|
------|-----------------|-----------------|------------------|----------------|
------|-------------0---|---------0-------|---------0-2b-2---|----------------|
----0-|-----0---------0-|-----2-----0---0-|-----0------------|----------------|
------|---4-------2-----|---2---2---------|---4--------------|----------------|
------|-5-------3-------|-0---------------|-5----------------|----------------|


-----------------|-----------------|-----------------|-----------------|------|
-----------------|-----------------|-----------------|-----------------|------|
---------0-------|-------------0---|---------0-------|-------------2---|------|
-----2-----0---0-|-----0---------0-|-----2-----0---0-|-----0---------0-|------|
---2---2---------|---4-------2-----|---2---2---------|---4-------2-----|---2--|
-0---------------|-5-------3-------|-0---------------|-5-------3-------|-0----|
 Verse 1: (00:25)

-------------|-----------------|-----------------|------------------|-0-------|
-------------|-----------------|-----------------|------------------|-2-------|
-----0-------|-------------0---|---------0-------|---------0-2b-2---|-2-------|
-2-----0---0-|-----0---------0-|-----2-----0---0-|-----0------------|-2-------|
---2---------|---4-------2-----|---2---2---------|---4--------------|-0-------|
-------------|-5-------3-------|-0---------------|-5----------------|---------|
                                                                (2x)  Bridge:

------0---|-----------------|-0-----------3---|-----------------|-0-----------|
------0---|-----------------|-2-----------3---|-----------------|-2-----------|
------0---|-----------------|-2-----------4---|-----------------|-2-----------|
------2---|---------0-------|-2-----------5---|-----------------|-2-----------|
------2---|-----0h2---------|-0-----------5---|-----------------|-0-----------|
------0---|-----------------|-------------3---|-----------------|-------------|
 (00:51)

--0---|-----------------|-3-----3-3---3---|---3-----3-------|-5-----5-5---5---|
--0---|-----------------|-3-----3-3---3---|---3-----3-------|-5-----5-5---5---|
--0---|-----------------|-4-----4-4---5---|---5-----4-------|-5-----5-5---5---|
--2---|---------0-------|-5-----5-5---5---|---5-----5-------|-7-----7-7---7---|
--2---|-----0h2---------|-5-----5-5---5---|---5-----5-------|-7-----7-7---7---|
--0---|-----------------|-3-----3-3---3---|---3-----3-------|-5-----5-5---5---|


--|---5-------------|---------------------------------------------------------|
--|---5-------------|---------------------------------------------------------|
--|---5-------------|---------------------------------------------------------|
--|---7-----7h8p7---|---------------------------------------------------------|
--|---7----------10-|---------------------------------------------------------|
--|---5-------------|---------------------------------------------------------|


Chorus: |em| |G| |am| |am G| |em| |G| |am| |G| |em| |G| |am| |am G| |em| |G|
        |am|


-----------------|-----------------|-----------------|-----------------|------|
-----------------|-----------------|-----------------|-----------------|------|
---------0-------|-------------0---|---------0-------|-------------2---|------|
-----2-----0---0-|-----0---------0-|-----2-----0---0-|-----0---------0-|------|
---2---2---------|---4-------2-----|---2---2---------|---4-------2-----|---2--|
-0---------------|-5-------3-------|-0---------------|-5-------3-------|-0----|
 Intro to verse 2: (01:32)

-------------|-----------------|-----------------|------------------|---------|
-------------|-----------------|-----------------|------------------|---------|
-----0-------|-------------0---|---------0-------|---------0-2b-2---|---------|
-2-----0---0-|-----0---------0-|-----2-----0---0-|-----0------------|---------|
---2---------|---4-------2-----|---2---2---------|---4--------------|---------|
-------------|-5-------3-------|-0---------------|-5----------------|---------|


Verse 2: (01:44) Same as verse 1 (2x)


Bridge: (02:09)


Chorus: (02:25)


------------------|-----------------|------------------|------------------|---|
------------------|-----------------|------------------|------------------|---|
------------------|-----------------|------------------|------------------|---|
------------------|---------5-6-7v--|------------------|---------9-7----7-|---|
-7-7-7-7-10-7-7-7-|---7-7-7---------|-7-7-7-7-10-7-7-7-|---7-7-7-7-7-10-7-|---|
-0-0-0-0-0--0-0-0-|---0-0-0---------|-0-0-0-0-0--0-0-0-|---0-0-0-0-0-0--0-|---|
 Solo: (02:50)                                                        (4x)


Chorus:


-----------------|-----------------|-----------------|-----------------|------|
-----------------|-----------------|-----------------|-----------------|------|
---------0-------|-------------0---|---------0-------|-------------2---|------|
-----2-----0---0-|-----0---------0-|-----2-----0---0-|-----0---------0-|------|
---2---2---------|---4-------2-----|---2---2---------|---4-------2-----|---2--|
-0---------------|-5-------3-------|-0---------------|-5-------3-------|-0----|
 Outro:

-------------|-----------------|-----------------|------------------|-0-------|
-------------|-----------------|-----------------|------------------|--0------|
-----0-------|-------------0---|---------0-------|---------0-2b-2-0-|---0-----|
-2-----0---0-|-----0---------0-|-----2-----0---0-|-----0------------|----2----|
---2---------|---4-------2-----|---2---2---------|---4--------------|-----2---|
-------------|-5-------3-------|-0---------------|-5----------------|------0--|


---------------|--------------------------------------------------------------|
---------------|--------------------------------------------------------------|
---------------|--------------------------------------------------------------|
---------------|--------------------------------------------------------------|
---------------|--------------------------------------------------------------|
---------------|--------------------------------------------------------------|

8.DANGEROUS GAME

-Intro-

Gtr.1 (clean)
e|-5----------------------|-----------------------|-0-5-3--3/5--8-8-8-8/10-8---|
B|-5----------------------|-----------------------|-------------8-8-8-8----8---|
G|-5----5p4-----------4---|-----------------------|----------------------------|
D|-7-5------5---5-5h7---5-|------------------2--5-|----------------------------|
A|-7----------7-----------|-----3-3h5-5-3--5------|----------------------------|
E|-5----------------------|-3-5-------------------|----------------------------|

Gtr.2 (Clean)
e|(5)-(8)--(10)----(5)-------|-(8)--(10)--(5)------(8)-------(10)------(5)--------(8)---(10)-|
B|-5--(8)--(12)-----5--------|-(8)--(12)---5-------(8)-------(12)-------5---------(8)---(12)-|
G|-5---9----12------5--------|--9----12----5--------9---------12--------5----------9-----12--|
D|-7---10---12------7--------|--10---12----7--------10--------12--------7----------10----12--|
A|-------------------------------------------------------------------------------------------|
E|-------------------------------------------------------------------------------------------|

Gtr.1 (Clean)
e|---8-----8-----8-|-7h8p7---------------|------------------------------------0----0------|
B|-----8-8---8-8---|-------10-8-8/10-10~-|------------------------------------------------|
G|-----------------|---------------------|------4---------5-----4----5-4--4/5--5/7---7/9--|
D|-----------------|---------------------|--5h7---5---5h7---5h7---5-----------------------|
A|-----------------|---------------------|------------------------------------------------|
E|-----------------|---------------------|------------------------------------------------|

Gtr.2 (Clean)
e|(5)-(8)--(10)----(5)-------|-(8)--(10)--(5)------(8)-------(10)------(5)--------(8)---(10)-|
B|-5--(8)--(12)-----5--------|-(8)--(12)---5-------(8)-------(12)-------5---------(8)---(12)-|
G|-5---9----12------5--------|--9----12----5--------9---------12--------5----------9-----12--|
D|-7---10---12------7--------|--10---12----7--------10--------12--------7----------10----12--|
A|-------------------------------------------------------------------------------------------|
E|-------------------------------------------------------------------------------------------|

-Verse-

Gtr.1 (Clean)
e|-----------------|---------------------|-|
B|-----------------|--------------3------|-|
G|-2---------------|-----0---------------|-|
D|-2---------------|---2--------4--------|-|
A|-0---------------|-3--------5----------|-|
E|-----------------|---------------------|-|

Gtr.2 (Clean)
e|(5)--------------|-(8)-----(10)--------|-|
B|-5---------------|-(8)-----(12)--------|-|
G|-5---------------|--9-------12---------|-|
D|-7---------------|--10------12---------|-|
A|-----------------|---------------------|-|
E|-----------------|---------------------|-|

-Chorus-

Both Gtrs. (Distortion)
Part 1:
      * *                * *                * *                * *
e|------------------|------------------|------------------|------------------|
B|------------------|------------------|------------------|------------------|
G|----------7----7--|-5--5-5---7----7--|----------7----7--|-5--5-5---7----7--|
D|-7--7-7---7----7--|-5--5-5---7----7--|-7--7-7---7----7--|-5--5-5---7----7--|
A|-7--7-7---5----5--|-3--3-3---5----5--|-7--7-7---5----5--|-3--3-3---5----5--|
E|-5--5-5-----------|------------------|-5--5-5-----------|------------------|

      * *                * *
e|------------------|------------------|---------------------|
B|------------------|------------------|---------------------|
G|----------7----7--|-5--5-5---7----7--|---------------------|
D|-7--7-7---7----7--|-5--5-5---7----7--|-7-------------------|
A|-7--7-7---5----5--|-3--3-3---5----5--|-7-let ring----------|
E|-5--5-5-----------|------------------|-5-------------------|

then Part 2:

      * *                        * *                        * *
e|--------------------------|--------------------------|--------------------------|------------------|
B|--------------------------|--------------------------|--------------------------|-1p0--------------|
G|--------------------------|--------------------------|--------------------------|-----0------------|
D|-7--7-7--5--x-x-x-x-x-x-x-|-7--7-7--5--x-x-x-x-x-x-x-|-7--7-7--5--x-x-x-x-x-x-x-|------------------|
A|-7--7-7--5--x-x-x-x-x-x-x-|-7--7-7--5--x-x-x-x-x-x-x-|-7--7-7--5--x-x-x-x-x-x-x-|-------3\2---0----|
E|-5--5-5--3--x-x-x-x-x-x-x-|-5--5-5--3--x-x-x-x-x-x-x-|-5--5-5--3--x-x-x-x-x-x-x-|-----------3------|

      * *                        * *                        * *
e|--------------------------|--------------------------|--------------------------|------------------|
B|--------------------------|--------------------------|--------------------------|-1p0--------------|
G|--------------------------|--------------------------|--------------------------|-----0------------|
D|-7--7-7--5--x-x-x-x-x-x-x-|-7--7-7--5--x-x-x-x-x-x-x-|-7--7-7--5--x-x-x-x-x-x-x-|------------------|
A|-7--7-7--5--x-x-x-x-x-x-x-|-7--7-7--5--x-x-x-x-x-x-x-|-7--7-7--5--x-x-x-x-x-x-x-|-------3\2---0----|
E|-5--5-5--3--x-x-x-x-x-x-x-|-5--5-5--3--x-x-x-x-x-x-x-|-5--5-5--3--x-x-x-x-x-x-x-|-----------3------|

-Bridge-

Gtr.(Distortion)
    * * * * * *  * * * * *   * * * * * *  * * * * *   * * * * * *  * * * * *   * * * * * *  *  *
e|-------------------------|------------------------|------------------------|-----------------------|
B|-------------------------|------------------------|------------------------|-----------------------|
G|-------------------------|------------------------|------------------------|-----------------------|
D|-------------------------|------------------------|------------------------|-----------------------|
A|-------------------------|-3h5-5-5-5-5--3-5-3-5-3-|------------------------|-3h5-5-5-5-5--3-(5)-5b-|
E|--3h5-5-5-5-5--3-5-3-5-3-|------------------------|-3h5-5-5-5-5--3-5-3-5-3-|-----------------------|

    * * * * * *  * * * * *   * * * * * *  * * * * *   * * * * * *  * * * * *   * * * * * *  *  *
e|-------------------------|------------------------|------------------------|-----------------------|
B|-------------------------|------------------------|------------------------|-----------------------|
G|-------------------------|------------------------|------------------------|-----------------------|
D|-------------------------|------------------------|------------------------|-----------------------|
A|-------------------------|-3h5-5-5-5-5--3-5-3-5-3-|------------------------|-3h5-5-5-5-5--3-(5)-5b-|
E|--3h5-5-5-5-5--3-5-3-5-3-|------------------------|-3h5-5-5-5-5--3-5-3-5-3-|-----------------------|

-Solo-

Gtr.(Distortion)
             * * * * *  * * * *
e|------------------------------------------------------|
B|------------------------------3h5p3-------------------|
G|------------------------------------5-2--0-2--5p4-0-2-|
D|-----------------0-2--------0-------------------------|
A|--3b-0-----0-2-3------0-2-3---------------------------|
E|------------------------------------------------------|

e|--8-8-8-8-8h10-10-10-10-10-10p8-8-8-8-8-8h10-8-8-8h10-8--|
B|--8-8-8-8-8-8--8--8--8--8--8--8-8-8-8-8-8-8--8-8-8-8--8--|
G|---------------------------------------------------------|
D|---------------------------------------------------------|
A|---------------------------------------------------------|
E|---------------------------------------------------------|

e|-8h10-10-10-10-10p8-8-10p8--10p8----8---------------------------------|
B|-8-8--8--8--8--8--8-8-8--8-------10---10-8-8h10p8---8-----------------|
G|--------------------------------------------------9---7-7h9p7----7----|
D|--------------------------------------------------------------10---7--|
A|----------------------------------------------------------------------|
E|----------------------------------------------------------------------|

9.CHANGES

Intro/Verse:			      Light Distortion
e|----5-------------------------------|------------------------|
B|------6-----0--8p5----5-------------|------------------------|
G|---------7----------5------x3-then:-|------------------------|x2
D|------------------------------------|-----3-----------2------|
A|------------------------------------|---3-----------2--------|
D|-0----------------------------------|-3-----3-0---2----------|
pre-chorous:
e|------1----0------------|
B|------3----3------------|
G|------2----2------------|x4
D|--0---------------------|
A|--0---------------------|
D|--0---------------------|
Chorous:
e|-------------------------------------------------------------|
B|-------------------------------------------------------------|
G|-------------------------------------------------------------|x4
D|---10----12----7----8----5----7----8----10----12----12-------|
A|---10----12----7----8----5----7----8----10----12----12-------|
D|---10----12----7----8----5----7----8----10----12----12-------|
Post-chorous:
e|-----1-1-1-1---0--0-----3-3-3-3---2--2-----------------------|
B|-----3-3-3-3---3--3-----3-3-3-3---3--3-----------------------|
G|-----2-2-2-2---2--2-----2-2-2-2---2--2-----------------------|
D|--0------------------0---------------------------------------|
A|--0------------------0---------------------------------------|
D|--0------------------0---------------------------------------|
Verse:
e|----5-------------------------------|------------------------|
B|------6--------8p5----5-------------|------------------------|
G|---------7--5-------5------x3-then:-|------------------------|x2
D|------------------------------------|-----3------------------|
A|------------------------------------|---3-----------2--------|
D|-0----------------------------------|-3-----3-0---2----------|
pre-chorous:
e|------1----0------------|
B|------3----3---(2)------|
G|------2----2------------|x4
D|--0---------------------|
A|--0---------------------|
D|--0---------------------|
Chorous:
e|-------------------------------------------------------------|
B|-------------------------------------------------------------|
G|-------------------------------------------------------------|x4
D|---10----12----7----8----5----7----8----10----12----12-------|
A|---10----12----7----8----5----7----8----10----12----12-------|
D|---10----12----7----8----5----7----8----10----12----12-------|
Post-chorous:
e|-----1-1-1-1---0--0-----3-3-3-3---2--2-----------------------|
B|-----3-3-3-3---3--3-----3-3-3-3---3--3-----------------------|
G|-----2-2-2-2---2--2-----2-2-2-2---2--2-----------------------|
D|--0------------------0---------------------------------------|
A|--0------------------0---------------------------------------|
D|--0------------------0---------------------------------------|

e|---0-0-0---1---3---------------------------------------------|
B|---3-3-3---2---2---------------------------------------------|
G|---2-2-2---3---3---------------------------------------------|x2
D|-------------------------------------------------------------|
A|-------------------------------------------------------------|
D|-------------------------------------------------------------|
Bridge:
e|-------------------------------------------------------------|
B|-------------------------------------------------------------|
G|-------------------------------------------------------------|
D|----3----0----3----5-5-5-5-5-5-5-5-5-------------------------|
A|----3----0----3----5-5-5-5-5-5-5-5-5-------------------------|
D|----3----0----3----5-5-5-5-5-5-5-5-5-------------------------|
Chorous:
e|-------------------------------------------------------------|
B|-------------------------------------------------------------|
G|-------------------------------------------------------------|x8
D|---10----12----7----8----5----7----8----10----12----12-------|
A|---10----12----7----8----5----7----8----10----12----12-------|
D|---10----12----7----8----5----7----8----10----12----12-------|
Outro: Ritardando (slow down)
e|-----1-1-1-1---0--0-----3-3-3-3---2--2-----------------------|
B|-----3-3-3-3---3--3-----3-3-3-3---3--3-----------------------|
G|-----2-2-2-2---2--2-----2-2-2-2---2--2-----------------------|x2
D|--0------------------0---------------------------------------|
A|--0------------------0---------------------------------------|
D|--0------------------0---------------------------------------|

10.GOING DOWN IN FLAMES

Part A
E|---------------|--------------|---------------|---------------|
B|---------------|--------------|---------------|---------------|
G|--9--11-11--12-|-7--11-11--12-|--9--11-11--12-|-----12-12--11-|
D|--9--11-11--12-|-7--11-11--12-|--9--11-11--12-|-10--12-12--11-|
A|--7--9--9---10-|-5--9--9---10-|--7--9--9---10-|-10--10-10--9--|
E|---------------|--------------|---------------|-8-------------|

E|---------------|---------------|---------------|---------------|
B|---------------|---------------|---------------|---------------|
G|--9--11-11--12-|--7--11-11--12-|--9--11-11--12-|---------------|
D|--9--11-11--12-|--7--11-11--12-|--9--11-11--12-|--10---9---7---|
A|--7--9--9---10-|--5--9--9---10-|--7--9--9---10-|--10---9---7---|
E|---------------|---------------|---------------|--8----7---5---|

Part B
E|-------|-------|-------|-------|  x2
B|-------|-------|-------|-------|
G|--9-9--|--5-5--|-------|--7-7--|
D|--9-9--|--5-5--|--5-5--|--7-7--|
A|--7-7--|--3-3--|--5-5--|--5-5--|
E|-------|-------|--3-3--|-------|

E|-----|-----|-----|-----|  x2  play the power chord ones and than start picking
B|-----|-----|-----|-----|	   single strings in it
G|--9--|--5--|-----|--7--|
D|--9--|--5--|--5--|--7--|
A|--7--|--3--|--5--|--5--|
E|-----|-----|--3--|-----|

Part C
E|-----------------|--------------| x2
B|-----------------|--------------|
G|--9--11--12------|--12-(12)--7--|
D|--9--11--12--10--|--12-(12)--7--|
A|--7--9---10--10--|--10-(10)--5--|
E|-------------8---|--------------|

Part A

Part B

Part C

Part D
E|-------|-------|-------|-------|
B|-------|-------|-------|-------|
G|--9-9--|--5-5--|-------|--7-7--|
D|--9-9--|--5-5--|--5-5--|--7-7--|
A|--7-7--|--3-3--|--5-5--|--5-5--|
E|-------|-------|--3-3--|-------|

E|-------|-------| x8   play the power chord ones and than start picking
B|-------|-------|	     single strings in it
G|--9-9--|--7-7--|
D|--9-9--|--7-7--|
A|--7-7--|--5-5--|
E|-------|-------|

Part C

Part E
E|-------|-------|-------|-------|  x2
B|-------|-------|-------|-------|
G|--9-9--|--5-5--|-------|--7-7--|
D|--9-9--|--5-5--|--5-5--|--7-7--|
A|--7-7--|--3-3--|--5-5--|--5-5--|
E|-------|-------|--3-3--|-------|

E|-------|-------|-----|-----|-----|
B|-------|-------|-----|-----|-----|
G|--9-9--|--5-5--|-----|--7--|--9--|
D|--9-9--|--5-5--|--5--|--7--|--9--|
A|--7-7--|--3-3--|--5--|--5--|--7--|
E|-------|-------|--3--|-----|-----|

11.SARAH YELLIN'

INTRO:
  (x8)
E----------------------------------------------------------------------------------|
B----------------------------------------------------------------------------------|
G----------------------------------------------------------------------------------|
D---------------2---4------------2--4---------------10--9--7-----------------------|
A---4---4-------2---4------------2--4---------------10--9--7-----------------------|
E---2---2-------0---2------------0--2----------------8--7--5-----------------------|
PM.......

VERSE (Pt. 1)
  (X4)
E----------------------------------------------------------------------------------|
B----------------------------------------------------------------------------------|
G----------------------------------------------------------------------------------|
D----4-4-4-4-4-4-4-4--------10-10-10-10-------9-9-9-9------------------------------|
A----4-4-4-4-4-4-4-4--------10-10-10-10-------9-9-9-9------------------------------|
E----2-2-2-2-2-2-2-2--------8--8--8--8--------7-7-7-7------------------------------|

(Pt 2.)
E---------------------------------------------------------------------------------|
B---------------------------------------------------------------------------------|
G---------------------------------------------------------------------------------|
D----4--------------------------------10---10----------9----9---------------------|
A----4------4--4--4--4--4--4----------10---10----------9----9---------------------|
E----2------2--2--2--2--2--2----------8-----8----------7----7---------------------|
PM          ................

CHORUS
 (x4)
E---------------------------------------------------------------------------------|
B---------------------------------------------------------------------------------|
G----2----------------------------------------------------------------------------|
D----2--------2------------4------------------------------------------------------|
A----0--------2------------4-------4-4-4-4-4-4-4----------------------------------|
E-------------0------------2-------2-2-2-2-2-2-2----------------------------------|
PM                                ...............

(INTERLUDE) w/ Wah
E---------------------------------------------------------------------------------|
B---------------------------------------------------------------------------------|
G---------------------------------------------------------------------------------|
D---------------------------------------------------------------------------------|
A7h9-9--7h9-9999---7h9-9-7h9-9999--10h12-12--10h12-12121212-----------------------|
E---------------------------------------------------------------------------------|

E----------------------------------------------------------------------------------|
B----------------------------------------------------------------------------------|
G----------------------------------------------------------------------------------|
D----------------------------------------------------------------------------------|
A-12h14-14--12h14-14141414---------------------------------------------------------|
E----------------------------------------------------------------------------------|


(SOLO) w/ Wah
((1st  and 2nd time only))
E----------------------------------------------------------------------------------------|
B----------------------------------------------------------------------------------------|
G12h14-14-14-14-�12h 14-14-14-14----12h14-14-14-14---------------------------------------|
D----------------------------------------------------------------------------------------|
A----------------------------------------------------------------------------------------|
E----------------------------------------------------------------------------------------|

E--------------------------------------------------------------------|
B--------------------------------------------------------------------|
G12h14-14-14-14 �12h 14-14-14-14----12h14-14-14-14----11~~~9---------|
D--------------------------------------------------------------------|
A--------------------------------------------------------------------|
E--------------------------------------------------------------------|

(3rd Time)
E----------------------------------------------------------------------------------------|
B----------------------------------14----------------------------------------------------|
G12h14-14-14-14 �12h 14-14-14-14---------------------------------------------------------|
D----------------------------------------------------------------------------------------|
A----------------------------------------------------------------------------------------|
E----------------------------------------------------------------------------------------|

E----------------------------------------------------------------------------------------|
B----------------------------------------------------------------------------------------|
G12h14-14-14-14 �12h 14-14-14-14----12h14-14-14-14----11~~~9-----------------------------|
D----------------------------------------------------------------------------------------|
A----------------------------------------------------------------------------------------|
E----------------------------------------------------------------------------------------|
comments
print report bad tab
4 comments total. Showing first comments.
0 reply
switchman33 wrote on April 4 2005, 12:00 am

awesome must have took you a long time to tab that. Keep em coming!

0 reply
Sebbe wrote on May 27 2005, 12:00 am

NICELEY DONE (CAPSLOCK)

0 reply
delljohnb wrote on November 21 2005, 07:17 am

Excellent....Impressive

I want to post or [tab]
guest
You may want to rate the tab now too:
select rating
Please do not post tabs as comments. Select "correction" instead!