Oops, an error
Loading. Please wait.

Be Like That Tab

ver5
ver5
More versions @911Tabs.com
6,658 views 3 this week
no commentswrite comment
1 2 3 4 5
accurate
x 5
Autoscroll
+/-
esc
set tempo
stop
Contributor
WARNING: You are trying to view
                                    content from Ultimate-Guitar.com
                                    in an unauthorized application,
                                    which is prohibited.

                                    Please use an official Ultimate
                                    Guitar Tabs application for iPhone,
                                    iPad or Android to access legitimate
                                    chords, guitar, bass, and drum tabs
                                    from Ultimate-Guitar.com database.

                                    Type "ultimate guitar tabs" in Apple
                                    App Store's or Android Market's
                                    search to find the application.
BAnd- 3 Doors Down
Song- Be Like That

Gtr I (E A D G B E) - 'Untitled'
Gtr II (E A D G B E) - 'Untitled'
Gtr III (E A D G B E) - 'Untitled'
Gtr IV (E A D G B E) - 'Untitled'
Gtr V (E A D G B E) - 'Untitled'

   Intro
    Q=96
   4/4
    Gtrs I, II
    E E E E +E  E E E   E E E E +E  E E E
||--------3-(3)-------|-------0-(0)-------|
||o-------------3-----|---3---------3-----|
||----0-----------0---|-----2---------2---|
||------0-----------0-|-0---------------0-|
||o-------------------|-------------------|
||--3-----------------|-------------------|


  E E E E +E  E E E   E E E E +E  E E E
|-------------0-----|-------------0------||
|-------3-(3)---3---|-------3-(3)---3---o||
|-----------------0-|-----0-----------0--||
|-----0-------------|---2----------------||
|---2---------------|-3-----------------o||
|-0-----------------|--------------------||


 1st Verse
  Gtr I
  E E E E +E  E E E   E E E E +E  E E E
|-------3-(3)-------|-------0-(0)---------|
|-------------3-----|---3---------3-------|
|---0-----------0---|-----2---------2-----|
|-----0-----------0-|-0---------------0---|
|-------------------|---------------------|
|-3-----------------|---------------------|
|
| Gtr III
| W                   H        Q    E S S
|-------------------|---------------------|
|-------------------|---------------------|
|-------------------|---------------7-----|
|-------------------|---------------0-7s9-|
|-------------------|---------------------|
|-------------------|---------------------|


  E E E E +E  E E    E   E E E E   +E  E E   E
|-------------0--------|---------------0-------|
|-------3-(3)---3------|-------3---(3)---3-----|
|--------------------0-|-----0---------------0-|
|-----0----------------|---2-------------------|
|---2------------------|-3---------------------|
|-0--------------------|-----------------------|
|
| E E E E  E  E S E.     E E E S S +Q    S S E
|-0--------------------|-----------------------|
|-------7-------7h8----|-------0h1-(1)---1p0---|
|-----0-------0--------|-----0---------------0-|
|---9------9-----------|---2-------------------|
|----------------------|-3---------------------|
|----------------------|-----------------------|


  Gtr I
  E E E E +E  E E E   E E E E +E  E E E
|-------3-(3)-------|-------0-(0)---------|
|-------------3-----|---3---------3-------|
|---0-----------0---|-----2---------2-----|
|-----0-----------0-|-0---------------0---|
|-------------------|---------------------|
|-3-----------------|---------------------|
|
| Gtr III
| W                   H        Q    E S S
|-------------------|---------------------|
|-------------------|---------------------|
|-------------------|---------------7-----|
|-------------------|---------------0-7s9-|
|-------------------|---------------------|
|-------------------|---------------------|
|
| Gtr IV
| W                   W
|-------------------|---------------------|
|-------------------|---------------------|
|-------------------|---------------------|
|-------------------|---------------------|
|-------------------|---------------------|
|-------------------|---------------------|


  E E E E +E  E E    E   E E E E   +E  E E   E
|-------------0--------|---------------0----------|
|-------3-(3)---3------|-------3---(3)---3--------|
|--------------------0-|-----0---------------0----|
|-----0----------------|---2----------------------|
|---2------------------|-3------------------------|
|-0--------------------|--------------------------|
|
| E E E E  E  E S E.     E E E S S +Q    S S E
|-0--------------------|--------------------------|
|-------7-------7h8----|-------0h1-(1)---1p0------|
|-----0-------0--------|-----0---------------0----|
|---9------9-----------|---2----------------------|
|----------------------|-3------------------------|
|----------------------|--------------------------|
|
| W                      H          Q    E   S S
|----------------------|--------------------------|
|----------------------|--------------------------|
|----------------------|--------------------------|
|----------------------|--------------------------|
|----------------------|---------------------x-x--|
|----------------------|---------------------x-x--|


  E  E E E +E  E  E  E     E  E E E +E  E  E  E
|--------3-(3)-----------|--------0-(0)-----------|
|--------------3---------|----3---------3---------|
|----0------------0------|------2----------2------|
|------0-------------0---|-0------------------0---|
|------------------------|------------------------|
|-3----------------------|------------------------|
|
| W                        H         Q     E  S S
|------------------------|------------------------|
|------------------------|------------------------|
|------------------------|-----------------7------|
|------------------------|-----------------0--7s9-|
|------------------------|------------------------|
|------------------------|------------------------|
|
| H.             +E  S S   H.             +E  S S
|------------------------|------------------------|
|------------------------|------------------------|
|------------------------|-7--------------(7)-----|
|-5--------------(5)-----|-7--------------(7)-x-x-|
|-5--------------(5)-x-x-|-5--------------(5)-x-x-|
|-3--------------(3)-x-x-|------------------------|


  E  E E E +E  E E     E   E  E E E   +E  E  E    E
|--------------0---------|----------------0-----------|
|--------3-(3)---3-------|--------3---(3)----3--------|
|----------------------0-|------0-----------------0---|
|------0-----------------|----2-----------------------|
|----2-------------------|-3--------------------------|
|-0----------------------|----------------------------|
|
| E  E E E  E  E S  E.     E  E E S S +Q     S  S E
|-0----------------------|----------------------------|
|--------7-------7h=8----|--------0h1-(1)----1p=0-----|
|------0-------0---------|------0-----------------0---|
|----9------9------------|----2-----------------------|
|------------------------|-3--------------------------|
|------------------------|----------------------------|
|
| H.             Q         H.               +E    S S
|------------------------|----------------------------|
|------------------------|----------------------------|
|-9--------------9\------|-5----------------(5)-------|
|-9--------------9\------|-5----------------(5)---x---|
|-7--------------7\------|-3----------------(3)---x-x-|
|------------------------|--------------------------0-|


  E  E E E +E  E  E  E     E  E E E +E  E  E  E
|--------3-(3)-----------|--------0-(0)-----------|
|--------------3---------|----3---------3---------|
|----0------------0------|------2----------2------|
|------0-------------0---|-0------------------0---|
|------------------------|------------------------|
|-3----------------------|------------------------|
|
| W                        H         Q     E  S S
|------------------------|------------------------|
|------------------------|------------------------|
|------------------------|-----------------7------|
|------------------------|-----------------0--7s9-|
|------------------------|------------------------|
|------------------------|------------------------|
|
| H.             +E  S S   H.             +E  S S
|------------------------|------------------------|
|------------------------|------------------------|
|------------------------|-7--------------(7)-----|
|-5--------------(5)-----|-7--------------(7)-x-x-|
|-5--------------(5)-x-x-|-5--------------(5)-x-x-|
|-3--------------(3)-x-x-|------------------------|


  E  E E E +E  E E    E   E  E E E   +E  E  E    E
|--------------0--------|----------------0-----------|
|--------3-(3)---3------|--------3---(3)----3--------|
|---------------------0-|------0-----------------0---|
|------0----------------|----2-----------------------|
|----2------------------|-3--------------------------|
|-0---------------------|----------------------------|
|
| E  E E E  E  E S E.     E  E E S S +Q     S  S E
|-0---------------------|----------------------------|
|--------7-------7h8----|--------0h1-(1)----1p=0-----|
|------0-------0--------|------0-----------------0---|
|----9------9-----------|----2-----------------------|
|-----------------------|-3--------------------------|
|-----------------------|----------------------------|
|
| H.             E    E   H.               +E    S S
|-----------------------|----------------------------|
|-----------------------|----------------------------|
|-9--------------9s===5-|-5----------------(5)-------|
|-9--------------9s===5-|-5----------------(5)---x---|
|-7--------------7s===3-|-3----------------(3)---x-x-|
|-----------------------|--------------------------x-|


 1st Chorus
  Gtr V
  W                            W
|----------------------------|----------------------------|
|----------------------------|----------------------------|
|----------------------------|----------------------------|
|----------------------------|----------------------------|
|----------------------------|----------------------------|
|----------------------------|----------------------------|
|
| Gtr I
| E. S S S E +S  S S S E S S   E. S S S E +S  S S S E S S
|-3--3-----3-(3)-3-----3-----|-0--0-x-x-0-(0)-0-x-x-0-x-x-|
|-3--3-----3-(3)-3-----3-----|-3--3-x-x-3-(3)-3-x-x-3-x-x-|
|-0--0-x-x-0-(0)-0-x-x-0-x-x-|-2--2-x-x-2-(2)-2-x-x-2-x-x-|
|-0--0-x-x-0-(0)-0-x-x-0-x-x-|-0--0-x-x-0-(0)-0-x-x-0-x-x-|
|-2--2-x-x-2-(2)-2-x-x-2-x-x-|----------------------------|
|-3--3-x-x-3-(3)-3-x-x-3-x-x-|----------------------------|
|
| Gtr IV
| E. S S S E +S  S S S E S S   E. S S S E +S  S S S E S S
|----------------------------|----------------------------|
|----------------------------|----------------------------|
|----------------------------|-7--7-x-x-7-(7)-7-x-x-7-x-x-|
|-5--5-x-x-5-(5)-5-x-x-5-x-x-|-7--7-x-x-7-(7)-7-x-x-7-x-x-|
|-5--5-x-x-5-(5)-5-x-x-5-x-x-|-5--5-x-x-5-(5)-5-x-x-5-x-x-|
|-3--3-x-x-3-(3)-3-x-x-3-x-x-|----------------------------|


                        <
  H           Q         Q        +H.                   Q
|------------------------------|--------------------------------|
|------------------------------|--------------------------------|
|----------------------(0)-----|-(0)-------------------0--------|
|------------------------------|--------------------------------|
|------------------------------|--------------------------------|
|------------------------------|--------------------------------|
|
| E. S S S E +S  S S S  E  S S    E. S S S E +S  S S S E S S
|-0--0-----0-(0)-0------0------|--0--0-x-x-0-(0)-0-x-x-0-x-x----|
|-0--0-x-x-0-(0)-0-x-x--0--x-x-|--1--1-x-x-1-(1)-1-x-x-1-x-x----|
|-0--0-x-x-0-(0)-0-x-x--0--x-x-|--0--0-x-x-0-(0)-0-x-x-0-x-x----|
|-2--2-x-x-2-(2)-2-x-x--2--x-x-|--2--2-x-x-2-(2)-2-x-x-2-x-x----|
|-2--2-x-x-2-(2)-2-x-x--2--x-x-|--3--3-x-x-3-(3)-3-x-x-3-x-x----|
|-0--0-x-x-0-(0)-0-x-x--0--x-x-|--------------------------------|
|
| E. S S S E +S  S S S  E  S S    E. S S S E +S  S S S E S S
|------------------------------|--------------------------------|
|------------------------------|--------------------------------|
|-9--9-x-x-9-(9)-9-x-x--9--x-x-|--5--5-x-x-5-(5)-5-x-x-5-x-x----|
|-9--9-x-x-9-(9)-9-x-x--9--x-x-|--5--5-x-x-5-(5)-5-x-x-5-x-x----|
|-7--7-x-x-7-(7)-7-x-x--7--x-x-|--3--3-x-x-3-(3)-3-x-x-3-x-x----|
|------------------------------|--------------------------------|


  +W                            +W
|-----------------------------|-----------------------------|
|-----------------------------|-----------------------------|
|-(0)-------------------------|-(0)-------------------------|
|-----------------------------|-----------------------------|
|-----------------------------|-----------------------------|
|-----------------------------|-----------------------------|
|
|  E. S S S E +S  S S S E S S    E. S S S E +S  S S S E S S
|--3--3-----3-(3)-3-----3-----|--0--0-x-x-0-(0)-0-x-x-0-x-x-|
|--3--3-----3-(3)-3-----3-----|--3--3-x-x-3-(3)-3-x-x-3-x-x-|
|--0--0-x-x-0-(0)-0-x-x-0-x-x-|--2--2-x-x-2-(2)-2-x-x-2-x-x-|
|--0--0-x-x-0-(0)-0-x-x-0-x-x-|--0--0-x-x-0-(0)-0-x-x-0-x-x-|
|--2--2-x-x-2-(2)-2-x-x-2-x-x-|-----------------------------|
|--3--3-x-x-3-(3)-3-x-x-3-x-x-|-----------------------------|
|
|  E. S S S E +S  S S S E S S    E. S S S E +S  S S S E S S
|-----------------------------|-----------------------------|
|-----------------------------|-----------------------------|
|-----------------------------|--7--7-x-x-7-(7)-7-x-x-7-x-x-|
|--5--5-x-x-5-(5)-5-x-x-5-x-x-|--7--7-x-x-7-(7)-7-x-x-7-x-x-|
|--5--5-x-x-5-(5)-5-x-x-5-x-x-|--5--5-x-x-5-(5)-5-x-x-5-x-x-|
|--3--3-x-x-3-(3)-3-x-x-3-x-x-|-----------------------------|


  +W                            +W
|-----------------------------|--------------------------------|
|-----------------------------|--------------------------------|
|-(0)-------------------------|-(0)----------------------------|
|-----------------------------|--------------------------------|
|-----------------------------|--------------------------------|
|-----------------------------|--------------------------------|
|
|  E. S S S E +S  S S S E S S    E. S S S E +S  S S S E S S
|--0--0-----0-(0)-0-----0-----|--0--0-x-x-0-(0)-0-x-x-0-x-x----|
|--0--0-x-x-0-(0)-0-x-x-0-x-x-|--1--1-x-x-1-(1)-1-x-x-1-x-x----|
|--0--0-x-x-0-(0)-0-x-x-0-x-x-|--0--0-x-x-0-(0)-0-x-x-0-x-x----|
|--2--2-x-x-2-(2)-2-x-x-2-x-x-|--2--2-x-x-2-(2)-2-x-x-2-x-x----|
|--2--2-x-x-2-(2)-2-x-x-2-x-x-|--3--3-x-x-3-(3)-3-x-x-3-x-x----|
|--0--0-x-x-0-(0)-0-x-x-0-x-x-|--------------------------------|
|
|  E. S S S E +S  S S S E S S    E. S S S E +S  S S S E S S
|-----------------------------|--------------------------------|
|-----------------------------|--------------------------------|
|--9--9-x-x-9-(9)-9-x-x-9-x-x-|--5--5-x-x-5-(5)-5-x-x-5-x-x----|
|--9--9-x-x-9-(9)-9-x-x-9-x-x-|--5--5-x-x-5-(5)-5-x-x-5-x-x----|
|--7--7-x-x-7-(7)-7-x-x-7-x-x-|--3--3-x-x-3-(3)-3-x-x-3-x-x----|
|-----------------------------|--------------------------------|


 Interlude
  Gtr I
  E.   S S S E +S  S S S E   S S   E.   S S S E +S  S S S E S S
|-0----0-x-x-0-(0)-0-x-x-0---x-x-|-3----3-x-x-3-(3)-3-x-x-3-x-x-|
|-1----1-x-x-1-(1)-1-x-x-1---x-x-|-3----3-x-x-3-(3)-3-x-x-3-x-x-|
|-2----2-x-x-2-(2)-2-x-x-2---x-x-|-0----0-x-x-0-(0)-0-x-x-0-x-x-|
|-2----2-x-x-2-(2)-2-x-x-2---x-x-|-2----2-x-x-2-(2)-2-x-x-2-x-x-|
|-0----0-x-x-0-(0)-0-x-x-0---x-x-|-3----3-x-x-3-(3)-3-x-x-3-x-x-|

|--------------------------------|------------------------------|
|
| Gtr IV
| E.   S S S E +S  S S S E   S S   E.   S S S E +S  S S S E S S
|--------------------------------|------------------------------|
|--------------------------------|------------------------------|
|-2----2-x-x-2-(2)-2-x-x-2---x-x-|-5----5-x-x-5-(5)-5-x-x-5-x-x-|
|-2----2-x-x-2-(2)-2-x-x-2---x-x-|-5----5-x-x-5-(5)-5-x-x-5-x-x-|
|-0----0-x-x-0-(0)-0-x-x-0---x-x-|-3----3-x-x-3-(3)-3-x-x-3-x-x-|
|--------------------------------|------------------------------|
|
| Gtr III
| E  E   E   E  E    E   S S E     E  E   E   E  E    E   E E
|--------0-----------0-----------|----0---------------0---------|
|-1----------0-----------0h1-----|-1----------3-----------1-----|
|----2----------2------------0---|--------0------0----------0---|
|--------------------------------|------------------------------|
|--------------------------------|------------------------------|
|--------------------------------|------------------------------|


  E.   S S S E +S  S S S E S S   E.   S S S E +S  S S S E S S
|-3----3-----3-(3)-3-----3-----|-3----3-----3-(3)-3-----3--------|
|-3----3-----3-(3)-3-----3-----|-3----3-----3-(3)-3-----3--------|
|-0----0-x-x-0-(0)-0-x-x-0-x-x-|-0----0-x-x-0-(0)-0-x-x-0-x-x----|
|-0----0-x-x-0-(0)-0-x-x-0-x-x-|-0----0-x-x-0-(0)-0-x-x-0-x-x----|
|-2----2-x-x-2-(2)-2-x-x-2-x-x-|-2----2-x-x-2-(2)-2-x-x-2-x-x----|
|-3----3-x-x-3-(3)-3-x-x-3-x-x-|-3----3-x-x-3-(3)-3-x-x-3-x-x----|
|
| E.   S S S E +S  S S S E S S   E.   S S S E +S  S S S E S S
|------------------------------|---------------------------------|
|------------------------------|---------------------------------|
|------------------------------|---------------------------------|
|-5----5-x-x-5-(5)-5-x-x-5-x-x-|-5----5-x-x-5-(5)-5-x-x-5-x-x----|
|-5----5-x-x-5-(5)-5-x-x-5-x-x-|-5----5-x-x-5-(5)-5-x-x-5-x-x----|
|-3----3-x-x-3-(3)-3-x-x-3-x-x-|-3----3-x-x-3-(3)-3-x-x-3-x-x----|
|
| E  E   E   E  E    E   E E     E  E   E   E  E    S S E E
|------------------------------|---------------------------------|
|----0---3---3-------3---1-----|-0------3---1--3----3-3-3-3------|
|-0-------------0----------0---|----0----------0----0-0-0-0------|
|------------------------------|---------------------------------|
|------------------------------|---------------------------------|
|------------------------------|---------------------------------|


  E.   S S S E +S  S S S E   S S   E.   S S S E +S  S S S E S S
|-0----0-x-x-0-(0)-0-x-x-0---x-x-|-3----3-x-x-3-(3)-3-x-x-3-x-x-|
|-1----1-x-x-1-(1)-1-x-x-1---x-x-|-3----3-x-x-3-(3)-3-x-x-3-x-x-|
|-2----2-x-x-2-(2)-2-x-x-2---x-x-|-0----0-x-x-0-(0)-0-x-x-0-x-x-|
|-2----2-x-x-2-(2)-2-x-x-2---x-x-|-2----2-x-x-2-(2)-2-x-x-2-x-x-|
|-0----0-x-x-0-(0)-0-x-x-0---x-x-|-3----3-x-x-3-(3)-3-x-x-3-x-x-|
|--------------------------------|------------------------------|
|
| E.   S S S E +S  S S S E   S S   E.   S S S E +S  S S S E S S
|--------------------------------|------------------------------|
|--------------------------------|------------------------------|
|-2----2-x-x-2-(2)-2-x-x-2---x-x-|-5----5-x-x-5-(5)-5-x-x-5-x-x-|
|-2----2-x-x-2-(2)-2-x-x-2---x-x-|-5----5-x-x-5-(5)-5-x-x-5-x-x-|
|-0----0-x-x-0-(0)-0-x-x-0---x-x-|-3----3-x-x-3-(3)-3-x-x-3-x-x-|
|--------------------------------|------------------------------|
|
| E  E   E   E +Q        S S E     E  E   E   E  E    E   E E
|--------0-----------------------|----0---------------0---------|
|-1----------0-(0)-------0h1-----|-1----------3-----------1-----|
|----2-----------------------0---|--------0------0----------0---|
|--------------------------------|------------------------------|
|--------------------------------|------------------------------|
|--------------------------------|------------------------------|


  E.   S S S E +S  S S S E S S   E  S S S S S S +S  S S S S S S S
|-3----3-----3-(3)-3-----3-----|-----------------------------------|
|-3----3-----3-(3)-3-----3-----|-----------------------------------|
|-0----0-x-x-0-(0)-0-x-x-0-x-x-|-4--4-4-4-4-4s5-(5)-5-5-5-5-5-5-5--|
|-0----0-x-x-0-(0)-0-x-x-0-x-x-|-4--4-4-4-4-4s5-(5)-5-5-5-5-5-5-5--|
|-2----2-x-x-2-(2)-2-x-x-2-x-x-|-2--2-2-2-2-2s3-(3)-3-3-3-3-3-3-3--|
|-3----3-x-x-3-(3)-3-x-x-3-x-x-|-----------------------------------|
|
| E.   S S S E +S  S S S E S S   E.   S S S S S +S  S S S E   S S
|------------------------------|-----------------------------------|
|------------------------------|-----------------------------------|
|------------------------------|-4----4-4-4-4s5-(5)-5-x-x-5---x-x--|
|-5----5-x-x-5-(5)-5-x-x-5-x-x-|-4----4-4-4-4s5-(5)-5-x-x-5---x-x--|
|-5----5-x-x-5-(5)-5-x-x-5-x-x-|-2----2-2-2-2s3-(3)-3-x-x-3---x-x--|
|-3----3-x-x-3-(3)-3-x-x-3-x-x-|-----------------------------------|
|
| E  E   Q      E    E   E E     E  E   E   E    E    E   E   S S
|------------------------------|-2---------------3--------3--------|
|----0---3-----------3---1-----|----0-------1-----------------1-1--|
|-0-------------0----------0---|--------0-------------0-------0-0--|
|------------------------------|-----------------------------------|
|------------------------------|-----------------------------------|
|------------------------------|-----------------------------------|


 2nd Verse
  Gtr II
  E E E E +E  E E E    E  E E E +E  Q   E
|-------3-(3)-------|---------0-(0)-2---3-|
|-------------3-----|-----3---------------|
|---------------0---|-------2-------------|
|-----0-----------0-|--0------------------|
|---2---------------|---------------------|
|-3-----------------|---------------------|
|
| Gtr IV
|                      >
| W                   +W
|-------------------|---------------------|
|-------------------|---------------------|
|-------------------|---------------------|
|-5-----------------|-(5)-----------------|
|-5-----------------|-(5)-----------------|
|-3-----------------|-(3)-----------------|
|
| Gtr I
| E E E E +E  E E E    E  E E E +E  E E E
|-------3-(3)-------|---------0-(0)-------|
|-------------3-----|-----3---------3-----|
|---0-----------0---|-------2---------2---|
|-----0-----------0-|--0----------------0-|
|-------------------|---------------------|
|-3-----------------|---------------------|


   E  E E E +E  E E E    E  E E E +E  E E E
|---------------0-----|---------------0-----|
|---------3-(3)---3---|---------3-(3)---3---|
|-------------------0-|-------0-----------0-|
|-------0-------------|-----2---------------|
|-----2---------------|--3------------------|
|--0------------------|---------------------|
|
| +W                    +W
|---------------------|---------------------|
|---------------------|---------------------|
|---------------------|---------------------|
|-(5)-----------------|-(5)-----------------|
|-(5)-----------------|-(5)-----------------|
|-(3)-----------------|-(3)-----------------|
|
|  E  E E E +E  E E E    E  E E E +E  E E E
|---------------0-----|---------------0-----|
|---------3-(3)---3---|---------3-(3)---3---|
|-------------------0-|-------0-----------0-|
|-------0-------------|-----2---------------|
|-----2---------------|--3------------------|
|--0------------------|---------------------|



    Gtr I
    E E E E +E  E E E   E E E E +E  E E E
||--------3-(3)-------|-------0-(0)---------|
||o-------------3-----|---3---------3-------|
||----0-----------0---|-----2---------2-----|
||------0-----------0-|-0---------------0---|
||o-------------------|---------------------|
||--3-----------------|---------------------|
|
|   Gtr II
|   E E E E +E  E E E   E E E E +E  Q   E
||--------3-(3)-------|-------0-(0)-2---3---|
||o-------------3-----|---3-----------------|
||----------------0---|-----2---------------|
||------0-----------0-|-0-------------------|
||o---2---------------|---------------------|
||--3-----------------|---------------------|
|
|   Gtr III
|   W                   H        Q    E S S
||--------------------|---------------------|
||o-------------------|---------------------|
||--------------------|---------------7-----|
||--------------------|---------------0-7s9-|
||o-------------------|---------------------|
||--------------------|---------------------|


  E E E E +E  E E    E   E E E E   +E  E E   E   3x
|-------------0--------|---------------0---------||
|-------3-(3)---3------|-------3---(3)---3------o||
|--------------------0-|-----0---------------0---||
|-----0----------------|---2---------------------||
|---2------------------|-3----------------------o||
|-0--------------------|-------------------------||
|
| E E E E +E  E E    E   E E E E   +E  E E   E   3x
|-------------0--------|---------------0---------||
|-------3-(3)---3------|-------3---(3)---3------o||
|--------------------0-|-----0---------------0---||
|-----0----------------|---2---------------------||
|---2------------------|-3----------------------o||
|-0--------------------|-------------------------||
|
| E E E E  E  E S E.     E E E S S +Q    S S E   3x
|-0--------------------|-------------------------||
|-------7-------7h8----|-------0h1-(1)---1p0----o||
|-----0-------0--------|-----0---------------0---||
|---9------9-----------|---2---------------------||
|----------------------|-3----------------------o||
|----------------------|-------------------------||


 2nd Chorus
  Gtr V
  W                            W
|----------------------------|----------------------------|
|----------------------------|----------------------------|
|----------------------------|----------------------------|
|----------------------------|----------------------------|
|----------------------------|----------------------------|
|----------------------------|----------------------------|
|
| Gtr I
| E. S S S E +S  S S S E S S   E. S S S E +S  S S S E S S
|-3--3-----3-(3)-3-----3-----|-0--0-x-x-0-(0)-0-x-x-0-x-x-|
|-3--3-----3-(3)-3-----3-----|-3--3-x-x-3-(3)-3-x-x-3-x-x-|
|-0--0-x-x-0-(0)-0-x-x-0-x-x-|-2--2-x-x-2-(2)-2-x-x-2-x-x-|
|-0--0-x-x-0-(0)-0-x-x-0-x-x-|-0--0-x-x-0-(0)-0-x-x-0-x-x-|
|-2--2-x-x-2-(2)-2-x-x-2-x-x-|----------------------------|
|-3--3-x-x-3-(3)-3-x-x-3-x-x-|----------------------------|
|
| Gtr IV
| E. S S S E +S  S S S E S S   E. S S S E +S  S S S E S S
|----------------------------|----------------------------|
|----------------------------|----------------------------|
|----------------------------|-7--7-x-x-7-(7)-7-x-x-7-x-x-|
|-5--5-x-x-5-(5)-5-x-x-5-x-x-|-7--7-x-x-7-(7)-7-x-x-7-x-x-|
|-5--5-x-x-5-(5)-5-x-x-5-x-x-|-5--5-x-x-5-(5)-5-x-x-5-x-x-|
|-3--3-x-x-3-(3)-3-x-x-3-x-x-|----------------------------|


                        <
  H           Q         Q        +H.                   Q
|------------------------------|--------------------------------|
|------------------------------|--------------------------------|
|----------------------(0)-----|-(0)-------------------0--------|
|------------------------------|--------------------------------|
|------------------------------|--------------------------------|
|------------------------------|--------------------------------|
|
| E. S S S E +S  S S S  E  S S    E. S S S E +S  S S S E S S
|-0--0-----0-(0)-0------0------|--0--0-x-x-0-(0)-0-x-x-0-x-x----|
|-0--0-x-x-0-(0)-0-x-x--0--x-x-|--1--1-x-x-1-(1)-1-x-x-1-x-x----|
|-0--0-x-x-0-(0)-0-x-x--0--x-x-|--0--0-x-x-0-(0)-0-x-x-0-x-x----|
|-2--2-x-x-2-(2)-2-x-x--2--x-x-|--2--2-x-x-2-(2)-2-x-x-2-x-x----|
|-2--2-x-x-2-(2)-2-x-x--2--x-x-|--3--3-x-x-3-(3)-3-x-x-3-x-x----|
|-0--0-x-x-0-(0)-0-x-x--0--x-x-|--------------------------------|
|
| E. S S S E +S  S S S  E  S S    E. S S S E +S  S S S E S S
|------------------------------|--------------------------------|
|------------------------------|--------------------------------|
|-9--9-x-x-9-(9)-9-x-x--9--x-x-|--5--5-x-x-5-(5)-5-x-x-5-x-x----|
|-9--9-x-x-9-(9)-9-x-x--9--x-x-|--5--5-x-x-5-(5)-5-x-x-5-x-x----|
|-7--7-x-x-7-(7)-7-x-x--7--x-x-|--3--3-x-x-3-(3)-3-x-x-3-x-x----|
|------------------------------|--------------------------------|


  W                            +W
|----------------------------|-----------------------------|
|----------------------------|-----------------------------|
|-0--------------------------|-(0)-------------------------|
|----------------------------|-----------------------------|
|----------------------------|-----------------------------|
|----------------------------|-----------------------------|
|
| E. S S S E +S  S S S E S S    E. S S S E +S  S S S E S S
|-3--3-----3-(3)-3-----3-----|--0--0-x-x-0-(0)-0-x-x-0-x-x-|
|-3--3-----3-(3)-3-----3-----|--3--3-x-x-3-(3)-3-x-x-3-x-x-|
|-0--0-x-x-0-(0)-0-x-x-0-x-x-|--2--2-x-x-2-(2)-2-x-x-2-x-x-|
|-0--0-x-x-0-(0)-0-x-x-0-x-x-|--0--0-x-x-0-(0)-0-x-x-0-x-x-|
|-2--2-x-x-2-(2)-2-x-x-2-x-x-|-----------------------------|
|-3--3-x-x-3-(3)-3-x-x-3-x-x-|-----------------------------|
|
| E. S S S E +S  S S S E S S    E. S S S E +S  S S S E S S
|----------------------------|-----------------------------|
|----------------------------|-----------------------------|
|----------------------------|--7--7-x-x-7-(7)-7-x-x-7-x-x-|
|-5--5-x-x-5-(5)-5-x-x-5-x-x-|--7--7-x-x-7-(7)-7-x-x-7-x-x-|
|-5--5-x-x-5-(5)-5-x-x-5-x-x-|--5--5-x-x-5-(5)-5-x-x-5-x-x-|
|-3--3-x-x-3-(3)-3-x-x-3-x-x-|-----------------------------|


  +W                            +W
|-----------------------------|--------------------------------|
|-----------------------------|--------------------------------|
|-(0)-------------------------|-(0)----------------------------|
|-----------------------------|--------------------------------|
|-----------------------------|--------------------------------|
|-----------------------------|--------------------------------|
|
|  E. S S S E +S  S S S E S S    E. S S S E +S  S S S E S S
|--0--0-----0-(0)-0-----0-----|--0--0-x-x-0-(0)-0-x-x-0-x-x----|
|--0--0-x-x-0-(0)-0-x-x-0-x-x-|--1--1-x-x-1-(1)-1-x-x-1-x-x----|
|--0--0-x-x-0-(0)-0-x-x-0-x-x-|--0--0-x-x-0-(0)-0-x-x-0-x-x----|
|--2--2-x-x-2-(2)-2-x-x-2-x-x-|--2--2-x-x-2-(2)-2-x-x-2-x-x----|
|--2--2-x-x-2-(2)-2-x-x-2-x-x-|--3--3-x-x-3-(3)-3-x-x-3-x-x----|
|--0--0-x-x-0-(0)-0-x-x-0-x-x-|--------------------------------|
|
|  E. S S S E +S  S S S E S S    E. S S S E +S  S S S E S S
|-----------------------------|--------------------------------|
|-----------------------------|--------------------------------|
|--9--9-x-x-9-(9)-9-x-x-9-x-x-|--5--5-x-x-5-(5)-5-x-x-5-x-x----|
|--9--9-x-x-9-(9)-9-x-x-9-x-x-|--5--5-x-x-5-(5)-5-x-x-5-x-x----|
|--7--7-x-x-7-(7)-7-x-x-7-x-x-|--3--3-x-x-3-(3)-3-x-x-3-x-x----|
|-----------------------------|--------------------------------|


 2nd Interlude
  Gtr I
  E.   S S S E +S  S S S E   S S   E.   S S S E +S  S S S E S S
|-0----0-x-x-0-(0)-0-x-x-0---x-x-|-3----3-x-x-3-(3)-3-x-x-3-x-x-|
|-1----1-x-x-1-(1)-1-x-x-1---x-x-|-3----3-x-x-3-(3)-3-x-x-3-x-x-|
|-2----2-x-x-2-(2)-2-x-x-2---x-x-|-0----0-x-x-0-(0)-0-x-x-0-x-x-|
|-2----2-x-x-2-(2)-2-x-x-2---x-x-|-2----2-x-x-2-(2)-2-x-x-2-x-x-|
|-0----0-x-x-0-(0)-0-x-x-0---x-x-|-3----3-x-x-3-(3)-3-x-x-3-x-x-|
|--------------------------------|------------------------------|
|
| Gtr IV
| E.   S S S E +S  S S S E   S S   E.   S S S E +S  S S S E S S
|--------------------------------|------------------------------|
|--------------------------------|------------------------------|
|-2----2-x-x-2-(2)-2-x-x-2---x-x-|-5----5-x-x-5-(5)-5-x-x-5-x-x-|
|-2----2-x-x-2-(2)-2-x-x-2---x-x-|-5----5-x-x-5-(5)-5-x-x-5-x-x-|
|-0----0-x-x-0-(0)-0-x-x-0---x-x-|-3----3-x-x-3-(3)-3-x-x-3-x-x-|
|--------------------------------|------------------------------|
|
| E  E   E   E  E    E   S S E     E  E   E   E  E    E   E E
|--------0-----------0-----------|----0---------------0---------|
|-1----------0-----------0h1-----|-1----------3-----------1-----|
|----2----------2------------0---|--------0------0----------0---|
|--------------------------------|------------------------------|
|--------------------------------|------------------------------|
|--------------------------------|------------------------------|


  E.   S S S E +S  S S S E S S   E.   S S S E +S  S S S E S S
|-3----3-----3-(3)-3-----3-----|-3----3-----3-(3)-3-----3--------|
|-3----3-----3-(3)-3-----3-----|-3----3-----3-(3)-3-----3--------|
|-0----0-x-x-0-(0)-0-x-x-0-x-x-|-0----0-x-x-0-(0)-0-x-x-0-x-x----|
|-0----0-x-x-0-(0)-0-x-x-0-x-x-|-0----0-x-x-0-(0)-0-x-x-0-x-x----|
|-2----2-x-x-2-(2)-2-x-x-2-x-x-|-2----2-x-x-2-(2)-2-x-x-2-x-x----|
|-3----3-x-x-3-(3)-3-x-x-3-x-x-|-3----3-x-x-3-(3)-3-x-x-3-x-x----|
|
| E.   S S S E +S  S S S E S S   E.   S S S E +S  S S S E S S
|------------------------------|---------------------------------|
|------------------------------|---------------------------------|
|------------------------------|---------------------------------|
|-5----5-x-x-5-(5)-5-x-x-5-x-x-|-5----5-x-x-5-(5)-5-x-x-5-x-x----|
|-5----5-x-x-5-(5)-5-x-x-5-x-x-|-5----5-x-x-5-(5)-5-x-x-5-x-x----|
|-3----3-x-x-3-(3)-3-x-x-3-x-x-|-3----3-x-x-3-(3)-3-x-x-3-x-x----|
|
| E  E   E   E  E    E   E E     E  E   E   E  E    S S E E
|------------------------------|---------------------------------|
|----0---3---3-------3---1-----|-0------3---1--3----3-3-3-3------|
|-0-------------0----------0---|----0----------0----0-0-0-0------|
|------------------------------|---------------------------------|
|------------------------------|---------------------------------|
|------------------------------|---------------------------------|


  E.   S S S E +S  S S S E   S S   E.   S S S E +S  S S S E S S
|-0----0-x-x-0-(0)-0-x-x-0---x-x-|-3----3-x-x-3-(3)-3-x-x-3-x-x-|
|-1----1-x-x-1-(1)-1-x-x-1---x-x-|-3----3-x-x-3-(3)-3-x-x-3-x-x-|
|-2----2-x-x-2-(2)-2-x-x-2---x-x-|-0----0-x-x-0-(0)-0-x-x-0-x-x-|
|-2----2-x-x-2-(2)-2-x-x-2---x-x-|-2----2-x-x-2-(2)-2-x-x-2-x-x-|
|-0----0-x-x-0-(0)-0-x-x-0---x-x-|-3----3-x-x-3-(3)-3-x-x-3-x-x-|
|--------------------------------|------------------------------|
|
| E.   S S S E +S  S S S E   S S   E.   S S S E +S  S S S E S S
|--------------------------------|------------------------------|
|--------------------------------|------------------------------|
|-2----2-x-x-2-(2)-2-x-x-2---x-x-|-5----5-x-x-5-(5)-5-x-x-5-x-x-|
|-2----2-x-x-2-(2)-2-x-x-2---x-x-|-5----5-x-x-5-(5)-5-x-x-5-x-x-|
|-0----0-x-x-0-(0)-0-x-x-0---x-x-|-3----3-x-x-3-(3)-3-x-x-3-x-x-|
|--------------------------------|------------------------------|
|
| E  E   E   E +Q        S S E     E  E   E   E  E    E   E E
|--------0-----------------------|----0---------------0---------|
|-1----------0-(0)-------0h1-----|-1----------3-----------1-----|
|----2-----------------------0---|--------0------0----------0---|
|--------------------------------|------------------------------|
|--------------------------------|------------------------------|
|--------------------------------|------------------------------|


  E.   S S S E +S  S S S E S S   E  S S S S S S +S  S S S S S S S
|-3----3-----3-(3)-3-----3-----|-----------------------------------|
|-3----3-----3-(3)-3-----3-----|-----------------------------------|
|-0----0-x-x-0-(0)-0-x-x-0-x-x-|-4--4-4-4-4-4s5-(5)-5-5-5-5-5-5-5--|
|-0----0-x-x-0-(0)-0-x-x-0-x-x-|-4--4-4-4-4-4s5-(5)-5-5-5-5-5-5-5--|
|-2----2-x-x-2-(2)-2-x-x-2-x-x-|-2--2-2-2-2-2s3-(3)-3-3-3-3-3-3-3--|
|-3----3-x-x-3-(3)-3-x-x-3-x-x-|-----------------------------------|
|
| E.   S S S E +S  S S S E S S   E.   S S S S S +S  S S S E   S S
|------------------------------|-----------------------------------|
|------------------------------|-----------------------------------|
|------------------------------|-4----4-4-4-4s5-(5)-5-x-x-5---x-x--|
|-5----5-x-x-5-(5)-5-x-x-5-x-x-|-4----4-4-4-4s5-(5)-5-x-x-5---x-x--|
|-5----5-x-x-5-(5)-5-x-x-5-x-x-|-2----2-2-2-2s3-(3)-3-x-x-3---x-x--|
|-3----3-x-x-3-(3)-3-x-x-3-x-x-|-----------------------------------|
|
| E  E   Q      E    E   E E     E  E   E   E    E    E   E   S S
|------------------------------|-2---------------3--------3--------|
|----0---3-----------3---1-----|----0-------1-----------------1-1--|
|-0-------------0----------0---|--------0-------------0-------0-0--|
|------------------------------|-----------------------------------|
|------------------------------|-----------------------------------|
|------------------------------|-----------------------------------|


 Breakdown
  Gtr I
  E E E E +E  E E E    E  E E E +E  E E E
|-------3-(3)-------|---------0-(0)---------|
|-------------3-----|-----3---------3-------|
|---0-----------0---|-------2---------2-----|
|-----0-----------0-|--0----------------0---|
|-------------------|-----------------------|
|-3-----------------|-----------------------|
|
| Gtr III
| W                    H         Q    E S S
|-------------------|-----------------------|
|-------------------|-----------------------|
|-------------------|-----------------7-----|
|-------------------|-----------------0-7s9-|
|-------------------|-----------------------|
|-------------------|-----------------------|
|
| Gtr IV
| W                   +W
|-------------------|-----------------------|
|-------------------|-----------------------|
|-------------------|-----------------------|
|-5-----------------|-(5)-------------------|
|-5-----------------|-(5)-------------------|
|-3-----------------|-(3)-------------------|


   E  E E E +E  E E    E    E  E E E   +E  E E   E
|---------------0--------|-----------------0-------|
|---------3-(3)---3------|---------3---(3)---3-----|
|----------------------0-|-------0---------------0-|
|-------0----------------|-----2-------------------|
|-----2------------------|--3----------------------|
|--0---------------------|-------------------------|
|
|  E  E E E  E  E S E.      E  E E S S +Q    S S E
|--0---------------------|-------------------------|
|---------7-------7h8----|---------0h1-(1)---1p0---|
|-------0-------0--------|-------0---------------0-|
|-----9------9-----------|-----2-------------------|
|------------------------|--3----------------------|
|------------------------|-------------------------|
|
| +W                       +W
|------------------------|-------------------------|
|------------------------|-------------------------|
|------------------------|-------------------------|
|-(5)--------------------|-(5)---------------------|
|-(5)--------------------|-(5)---------------------|
|-(3)--------------------|-(3)---------------------|


  E E E E +E  E E E    E  E E E +E  E E E
|-------3-(3)-------|---------0-(0)---------|
|-------------3-----|-----3---------3-------|
|---0-----------0---|-------2---------2-----|
|-----0-----------0-|--0----------------0---|
|-------------------|-----------------------|
|-3-----------------|-----------------------|
|
| W                    H         Q    E S S
|-------------------|-----------------------|
|-------------------|-----------------------|
|-------------------|-----------------7-----|
|-------------------|-----------------0-7s9-|
|-------------------|-----------------------|
|-------------------|-----------------------|
|
| >
| W                   +W
|-------------------|-----------------------|
|-------------------|-----------------------|
|-------------------|-----------------------|
|-5-----------------|-(5)-------------------|
|-5-----------------|-(5)-------------------|
|-3-----------------|-(3)-------------------|


  E E E E +E  E E    E   E E E E   +E  E E   E
|-------------0--------|---------------0----------|
|-------3-(3)---3------|-------3---(3)---3--------|
|--------------------0-|-----0---------------0----|
|-----0----------------|---2----------------------|
|---2------------------|-3------------------------|
|-0--------------------|--------------------------|
|
| E E E E  E  E S E.     E E E S S +Q    S S E
|-0--------------------|--------------------------|
|-------7-------7h8----|-------0h1-(1)---1p0------|
|-----0-------0--------|-----0---------------0----|
|---9------9-----------|---2----------------------|
|----------------------|-3------------------------|
|----------------------|--------------------------|
|
|                        PM--------------|
| W                      E E E E    E  E E   S S
|----------------------|--------------------------|
|----------------------|--------------------------|
|----------------------|-----------------------0--|
|----------------------|-5-5-5-5----5--5-5---5-0--|
|----------------------|-3-3-3-3----3--3-3---3----|
|----------------------|--------------------------|


   3rd Chorus
    Gtr I
    E.   S S S E +S  S S S E S S   E.   S S S E +S  S S S E S S
||--3----3-----3-(3)-3-----3-----|-0----0-x-x-0-(0)-0-x-x-0-x-x-|
||o-3----3-----3-(3)-3-----3-----|-3----3-x-x-3-(3)-3-x-x-3-x-x-|
||--0----0-x-x-0-(0)-0-x-x-0-x-x-|-2----2-x-x-2-(2)-2-x-x-2-x-x-|
||--0----0-x-x-0-(0)-0-x-x-0-x-x-|-0----0-x-x-0-(0)-0-x-x-0-x-x-|
||o-2----2-x-x-2-(2)-2-x-x-2-x-x-|------------------------------|
||--3----3-x-x-3-(3)-3-x-x-3-x-x-|------------------------------|
|
|   Gtr IV
|   E.   S S S E +S  S S S E S S   E.   S S S E +S  S S S E S S
||-------------------------------|------------------------------|
||o------------------------------|------------------------------|
||-------------------------------|-7----7-x-x-7-(7)-7-x-x-7-x-x-|
||--5----5-x-x-5-(5)-5-x-x-5-x-x-|-7----7-x-x-7-(7)-7-x-x-7-x-x-|
||o-5----5-x-x-5-(5)-5-x-x-5-x-x-|-5----5-x-x-5-(5)-5-x-x-5-x-x-|
||--3----3-x-x-3-(3)-3-x-x-3-x-x-|------------------------------|
|
|   E  E   E   E  E    E   E E     E  E   E   E  E    E   E E
||--3------------------3---------|---------------0--------------|
||o----3---0------3--------3-----|-3------3-----------3-----3---|
||-------------0-------------0---|----2-------2-----------2-----|
||-------------------------------|------------------------------|
||o------------------------------|------------------------------|
||-------------------------------|------------------------------|


  E.   S S S E +S  S S S E S S   E.   S S S E   +S  S S S E S S    4x
|-0----0-----0-(0)-0-----0-----|-0----0-x-x-0---(0)-0-x-x-0-x-x----||
|-0----0-x-x-0-(0)-0-x-x-0-x-x-|-1----1-x-x-1---(1)-1-x-x-1-x-x---o||
|-0----0-x-x-0-(0)-0-x-x-0-x-x-|-0----0-x-x-0---(0)-0-x-x-0-x-x----||
|-2----2-x-x-2-(2)-2-x-x-2-x-x-|-2----2-x-x-2---(2)-2-x-x-2-x-x----||
|-2----2-x-x-2-(2)-2-x-x-2-x-x-|-3----3-x-x-3---(3)-3-x-x-3-x-x---o||
|-0----0-x-x-0-(0)-0-x-x-0-x-x-|-----------------------------------||
|
| E.   S S S E +S  S S S E S S   E.   S S S E   +S  S S S E S S    4x
|------------------------------|-----------------------------------||
|------------------------------|----------------------------------o||
|-9----9-x-x-9-(9)-9-x-x-9-x-x-|-5----5-x-x-5---(5)-5-x-x-5-x-x----||
|-9----9-x-x-9-(9)-9-x-x-9-x-x-|-5----5-x-x-5---(5)-5-x-x-5-x-x----||
|-7----7-x-x-7-(7)-7-x-x-7-x-x-|-3----3-x-x-3---(3)-3-x-x-3-x-x---o||
|------------------------------|-----------------------------------||
|
| E  E   E   E  E    E   E E     E  E   E   S S  E    E   E E      4x
|--------0-----------0---------|----0-----------------0------------||
|----0----------0--------------|-1----------0h1-----------1-------o||
|------------0-------------0---|--------0--------0----------0------||
|-2----------------------2-----|-----------------------------------||
|------------------------------|----------------------------------o||
|------------------------------|-----------------------------------||


    E  E   E   E  E    E   E  E     E  E   E   S S  E    E   E E    3x W
||---------0-----------0------0---|----0-----------------0----------||-3----*|
||o----0----------0--------0------|-1----------0h1-----------1-----o||-3----*|
||-------------0------------------|-0------0--------0----------0----||-0----*|
||--2-----------------------------|---------------------------------||-0----*|
||o-------------------------------|--------------------------------o||-2----*|
||--------------------------------|---------------------------------||-3----*|
|
|   E.   S S S E +S  S S S E  S S   E.   S S S E   +S  S S S E S S  3x W
||--0----0-----0-(0)-0-----0------|-0----0-x-x-0---(0)-0-x-x-0-x-x--||-3----*|
||o-0----0-x-x-0-(0)-0-x-x-0--x-x-|-1----1-x-x-1---(1)-1-x-x-1-x-x-o||-3----*|
||--0----0-x-x-0-(0)-0-x-x-0--x-x-|-0----0-x-x-0---(0)-0-x-x-0-x-x--||-0----*|
||--2----2-x-x-2-(2)-2-x-x-2--x-x-|-2----2-x-x-2---(2)-2-x-x-2-x-x--||-0----*|
||o-2----2-x-x-2-(2)-2-x-x-2--x-x-|-3----3-x-x-3---(3)-3-x-x-3-x-x-o||-2----*|
||--0----0-x-x-0-(0)-0-x-x-0--x-x-|---------------------------------||-3----*|
|
|   E.   S S S E +S  S S S E.   S   E.   S S S E   +S  S S S E S S  3x W
||--------------------------------|---------------------------------||------*|
||o-------------------------------|--------------------------------o||------*|
||--9----9-x-x-9-(9)-9-x-x-9\-----|-5----5-x-x-5---(5)-5-x-x-5-x-x--||------*|
||--9----9-x-x-9-(9)-9-x-x-9\-----|-5----5-x-x-5---(5)-5-x-x-5-x-x--||-5----*|
||o-7----7-x-x-7-(7)-7-x-x-7\---x-|-3----3-x-x-3---(3)-3-x-x-3-x-x-o||-5----*|
||--------------------------------|---------------------------------||-3----*|


Duration Legend
---------------
W - whole; H - half; Q - quarter; E - 8th; S - 16th; T - 32nd; X - 64th; a - acciaccatura
+ - note tied to previous; . - note dotted; .. - note double dotted
Uncapitalized letters represent notes that are staccato (1/2 duration)
Irregular groupings are notated above the duration line
Duration letters will always appear directly above the note/fret number it represents the
duration for.  Duration letters with no fret number below them represent rests.  Multi-
bar rests are notated in the form Wxn, where n is the number of bars to rest for.  Low
melody durations appear below the staff

Tablature Legend
----------------
 h   - hammer-on
 p   - pull-off
 b   - bend
 pb  - pre-bend
 r   - bend release (if no number after the r, then release immediately)
 /\  - slide into or out of (from/to "nowhere")
 s   - legato slide
 S   - shift slide
<n>  - natural harmonic
[n]  - artificial harmonic
n(n) - tapped harmonic
 ~   - vibrato
 tr  - trill
 T   - tap
 TP  - trem. picking
 PM  - palm muting
\n/  - tremolo bar dip; n = amount to dip
 \n  - tremolo bar down
 n/  - tremolo bar up
/n\  - tremolo bar inverted dip
 =   - hold bend; also acts as connecting device for hammers/pulls
 <>  - volume swell (louder/softer)
 x   - on rhythm slash represents muted slash
 o   - on rhythm slash represents single note slash

Misc Legend
-----------
 |  - bar
||  - double bar
||o - repeat start
o|| - repeat end
*|  - double bar (ending)
 :  - bar (freetime)
 $  - Segno
 &  - Coda
Tempo markers - <E/E./Q/Q./H/H.> = BPM(8/16=s8/s16), where s8 = swing 8ths, s16 = swing 16ths


***************************************************************************************
* Generated using Power Tab Editor by Brad Larsen - http://powertab.guitarnetwork.org *
***************************************************************************************
comments
print report bad tab
I want to post or [tab]
guest
You may want to rate the tab now too:
select rating
Please do not post tabs as comments. Select "correction" instead!