Oops, an error
Loading. Please wait.

Changes Chords

ver2
ver2

Whole song

Interactive

More versions @911Tabs.com
1,608 views 3 this week
1 commentread comment
1 2 3 4 5
please rate
Autoscroll
+/-
esc
set tempo
stop
Difficulty
intermediate
Hey! There's an official Ultimate Guitar app which is ideal
for learning songs when you're away from computer. Get the app
WARNING: You are trying to view
                                    content from Ultimate-Guitar.com
                                    in an unauthorized application,
                                    which is prohibited.

                                    Please use an official Ultimate
                                    Guitar Tabs application for iPhone,
                                    iPad or Android to access legitimate
                                    chords, guitar, bass, and drum tabs
                                    from Ultimate-Guitar.com database.

                                    Type "ultimate guitar tabs" in Apple
                                    App Store's or Android Market's
                                    search to find the application.
I would say the picking requires you to play barre chords, since you need to get 
as high as possible with the first string (the thinnest):

Verse picking:

|-------5--------3------------------------|
|----------6--------5-----5---------------|
|-------------7--------5------------------|
|-----------------------------------------|
|----5------------------------------------|
|-----------------------------------------|

|-------5--------3----------3--5--6--3--5-|
|----------6--------5-----5---------------|
|-------------7--------5------------------|
|-----------------------------------------|
|-----------------------------------------|
|-----------------------------------------|

|-------5--------3------------------------|
|----------6--------5-----5---------------|
|-------------7--------5------------------|
|-----------------------------------------|
|----5------------------------------------|
|-----------------------------------------|

|--5--------3-----------------------------|
|-----6--------5-----5--------------------|
|--------7--------5-----------------------|
|------------------------------3--------2-|
|---------------------------3--------2----|
|------------------------1--------0-------|

As far as I know there's a different picking for the bridge involving the fourth 
string aswell, but I simply don't know how to write it, sorry!

Clean guitar during the verses, I use a distorted soundeffect when playing the 
chorus, sounds better than an overdrive.

PM = Palm-Mute

I'm pretty sure it's correct, you could ofcourse switch the powerchords in the 
verse out for some "full" chords, but I prefer the power chords.

Dm C 
Dm C
Dm C 
F  E

                  Dm               C      
I'm not supposed to be scared of anything
        Dm              C
But I don't know where I am
                 Dm                C
I wish that I could move but I'm exhausted
      F5         E5
And nobody understands
   Dm                  C      
I'm tryin' hard to breathe now
        Dm             C
but there's no air in my lungs
        Dm             C
There's no one here to talk to
         F5            E5 
And the pain inside is making me numb


Dm                 Dm
I try to hold this, under control
Dm                 Dm
They can't help me, 'cause no one knows

D5

C5  D5  A5 Bb5 A5       C5 A5  C5  D5
Now I'm going through changes, changes
C5  D5 A5  Bb5  A5 C5 A5  C5 D5
God I feel so frustrated lately~~
C5   D5 A5 Bb5 A5 C5 A5  C5 D5
When I get suff-o-cated save me
C5  D5  A5 Bb5 A5       C5 A5  C5  D5
Now I'm going through changes, changes


Dm                   C            
I'm feelin' weak and weary walkin' 
Dm                 C
through this world alone
           Dm            C         
Everything I say, every word of it, 
F5              E5
cuts me to the bone
Dm                    C     
I've got something to say but 
     Dm             C
now I got nowhere to turn
Dm                      C                
It feels like I've been buried underneath 
F5            E5
all the weight of the world


Dm                 Dm
I try to hold this, under control
Dm                 Dm
They can't help me, 'cause no one knows


C5  D5  A5 Bb5 A5       C5 A5  C5  D5
Now I'm going through changes, changes
C5  D5 A5  Bb5  A5 C5 A5  C5 D5
God I feel so frustrated lately~~
C5   D5 A5 Bb5 A5 C5 A5  C5 D5
When I get suff-o-cated save me
C5  D5  A5 Bb5 A5       C5 A5  C5  D5
Now I'm going through changes, changes


Dm C Dm C


   C5                   D5
I'm blind and shaking, Bound and breaking
   C5                    D5          D5
I hope I make it through all these changes 
                         PM---------

C5  D5  A5 Bb5 A5       C5 A5  C5  D5
Now I'm going through changes, changes
C5  D5 A5  Bb5  A5 C5 A5  C5 D5
God I feel so frustrated lately~~
C5   D5 A5 Bb5 A5 C5 A5  C5 D5
When I get suff-o-cated save me
C5  D5  A5 Bb5 A5       C5 A5  C5  D5
Now I'm going through changes, changes

C5  D5  A5 Bb5 A5       C5 A5  C5  D5
Now I'm going through changes, changes
C5  D5 A5  Bb5  A5 C5 A5  C5 D5
God I feel so frustrated lately~~
C5   D5 A5 Bb5 A5 C5 A5  C5 D5
When I get suff-o-cated save me
C5  D5  A5 Bb5 A5       C5 A5  C5  D5
Now I'm going through changes, changes

Dm C
Dm C
Dm C
F  E

Questions? Suggestions?

E-mail me at lukygn@gmail.com
comments
We did not receive enough feedback on this tab! Please rate:
print report bad tab
1 2 3 4 5
1 comment total.
0 reply
Radman_Paiza wrote on November 20 2009, 10:55 am

|-------5--------3------------------------|
|----------6--------5-----5---------------|
|-------------7--------5------------------|
|-----------------------------------------|
|----5------------------------------------|
|-----------------------------------------|

|-------5--------3------3--5--6--3--5-----|
|----------6--------5---------------------|
|-------------7---------------------------|
|-----------------------------------------|
|-----------------------------------------|
|-----------------------------------------|

|--5--------3-----------------------------|
|-----6--------5-----5--------------------|
|--------7--------5-----------------------|
|------------------------------3--------2-|
|---------------------------3--------2----|
|------------------------1--------0-------|

Correct verse picking. Some flaws in the previous one.

This is, however, correct.

I want to post or [tab]
guest
You may want to rate the tab now too:
select rating
Please do not post tabs as comments. Select "correction" instead!