Oops, an error
Loading. Please wait.

Citizen Soldier Tab

ver4
ver4

Whole song

Interactive

More versions @911Tabs.com
283 views 1 this week
no commentswrite comment
1 2 3 4 5
please rate
Autoscroll
+/-
esc
set tempo
stop
Contributor
Difficulty
Tuning
intermediate
C G C F A D
NEW! There's an official Ultimate Guitar app which is ideal
for learning songs when you're away from computer. Get the app
WARNING: You are trying to view
                                    content from Ultimate-Guitar.com
                                    in an unauthorized application,
                                    which is prohibited.

                                    Please use an official Ultimate
                                    Guitar Tabs application for iPhone,
                                    iPad or Android to access legitimate
                                    chords, guitar, bass, and drum tabs
                                    from Ultimate-Guitar.com database.

                                    Type "ultimate guitar tabs" in Apple
                                    App Store's or Android Market's
                                    search to find the application.
Tabbed by:-
RantiNasha
For queries contact:- srivatschari@gmail.com


Well my first tab here and ever...so please comment and rate :)
Well I just found this way exactly the same as I heard.

Tuning: Dropped C

Key:
h-Hammer
p-pull

intro/verse:
D|---------------------------------------------------------------|
A|---------------------------------------------------------------|
F|---------------------------------------------------------------|
C|----------------------------------------------------7-7--------|
G|---10h12-10h12-b12-10h12-15-10h12-10h12-10h12-b12--8-7-7p8-----|
C|---0--0--0--0---0--0--0--0--0--0--0--0--0--0---0---------------|

Beyond the boundaries of your city's lights,
Stand the heroes waiting for your cries.
So many times you did not bring this on yourself,
When that moment finally comes,
I'll be there to help.

Pre-Chorus:
D|--0---1-1--0-0-0-0--------0-5---1-1--0-0-0-0-------------------|
A|--6---1-1--1-1-1-1--------6-6---1-1--1-1-1-1-------------------|
F|--7---3-3--2-2-2-2--------7-7---3-3--2-2-2-2-------------------|
C|------3-3--2-2-2-2--------------3-3--2-2-2-2-------------------|
G|------1-1--0-0-0-0--------------1-1--0-0-0-0-------------------|
C|-0-----------------------0-------------------------------------|

On that day
When you need your brothers and sisters to care,
I'll be right here.

Chorus:
D|---------------------------------------------------------------|
A|---------------------------------------------------------------|
F|-----------2-2-5-5-----------------5---------------------------|
C|-0-0-3-0-0-2-2-5-5-0-0-3-0-0-8-7-4-5-3-5-----------------------| (x2)
G|-0-0-3-0-0-1-1-3-3-0-0-3-0-0-8-7-4-3-3-5-----------------------|
C|-0-0-3-0-0---------0-0-3-0-0-8-7-4---3-5-----------------------|

Citizen soldiers holding the light
For the ones that we guide from the dark of despair.
Standing on guard for the ones that we sheltered,
We'll always be ready
Because we will always be there.

(Repeat the same again until the Bridge)

When there are people crying in the streets,
When they're starving for a meal to eat,
When they simply need a place to make their beds,
Right here underneath my wing,
You can rest your head.

On that day
When you need your brothers and sisters to care,
I'll be right here.

Citizen soldiers holding the light
For the ones that we guide from the dark of despair.
Standing on guard for the ones that we sheltered,
We'll always be ready
Because we will always be there.

Bridge:(you need to be fast)
D|---------------------------------------------------------------|
A|----8h10p8--------8h10p8------10h11-10p8----10h11-10p8---------|
F|--10------------10-----------10------------10------------------|
C|-0-------------0------------0-------------0--------------------| (x4)
G|---------------------------------------------------------------|
C|---------------------------------------------------------------|

Hope and pray that you'll never need me,
But rest assured I will not let you down.
I'll walk beside you but you may not see me,
The strongest among you may not wear a crown.

Chorus:
D|---------------------------------------------------------------|
A|---------------------------------------------------------------|
F|-----------2-2-5-5-----------------5---------------------------|
C|-0-0-3-0-0-2-2-5-5-0-0-3-0-0-8-7-4-5-3-5-----------------------| (x4)
G|-0-0-3-0-0-1-1-3-3-0-0-3-0-0-8-7-4-3-3-5-----------------------|
C|-0-0-3-0-0---------0-0-3-0-0-8-7-4---3-5-----------------------|

On that day
When you need your brothers and sisters to care,
I'll be right here!
On that day
When you don't have the strength for the burden you bear,
I'll be right here!


Thank you. :) Rate and comment :)
comments
We did not receive enough feedback on this tab! Please rate:
print report bad tab
1 2 3 4 5
I want to post or [tab]
guest
You may want to rate the tab now too:
select rating
Please do not post tabs as comments. Select "correction" instead!