Oops, an error
Loading. Please wait.

Duck And Run Tab

ver7
ver7

Intro

Interactive

More versions @911Tabs.com
3,082 views 18 this week
no commentswrite comment
1 2 3 4 5
please rate
Autoscroll
+/-
esc
set tempo
stop
Contributor
Difficulty
novice
NEW! There's an official Ultimate Guitar app which is ideal
for learning songs when you're away from computer. Get the app
WARNING: You are trying to view
                                    content from Ultimate-Guitar.com
                                    in an unauthorized application,
                                    which is prohibited.

                                    Please use an official Ultimate
                                    Guitar Tabs application for iPhone,
                                    iPad or Android to access legitimate
                                    chords, guitar, bass, and drum tabs
                                    from Ultimate-Guitar.com database.

                                    Type "ultimate guitar tabs" in Apple
                                    App Store's or Android Market's
                                    search to find the application.
NOTE:  NOT MY WORK.  The best version on this site was from Guitar Pro, so I converted 
to text format.

3 Doors Down - Duck And Run
Intro
     S                                          S S S S S S S S  S  S  S  S S S
E||-----------------------------------------------------------------------------|
B||-----------------------------------------------------------------------------|
G||--9------------------------------------------L-9-9-9-L-9-9-L-12--L-12-11-L-9-|
D||-----------------------------------------------------------------------------|
A||--7------------------------------------------L-7-7-7-L-7-7-L-10--L-10--9-L-7-|
E||-----------------------------------------------------------------------------|


  S S S S S S S S S S S S S S S S    S S S S S S S S S  S  S  S  S S  S S
----------------------------------|---------------------------------------|
----------------------------------|---------------------------------------|
--5-L-5-5-5-5-5-4-L-4-4-5-L-5-7-L-|--9-L-9-9-9-L-9-9-L-12--L-12-11-L-14-L-|
----------------------------------|---------------------------------------|
--3-L-3-3-3-3-3-2-L-2-2-3-L-3-5-L-|--7-L-7-7-7-L-7-7-L-10--L-10--9-L-12-L-|
----------------------------------|---------------------------------------|


  S S S S S S S S S S S S S S S S    S S S S S S S S S  S  S  S  S S S S
----------------------------------|--------------------------------------|
----------------------------------|--------------------------------------|
--5-L-5-5-5-5-5-4-L-4-4-5-L-5-7-L-|--9-L-9-9-9-L-9-9-L-12--L-12-11-L-9-L-|
----------------------------------|--------------------------------------|
--3-L-3-3-3-3-3-2-L-2-2-3-L-3-5-L-|--7-L-7-7-7-L-7-7-L-10--L-10--9-L-7-L-|
----------------------------------|--------------------------------------|


  S S S S S S S S S S S S S S S S    S S S S S S S S S  S  S  S  S S  S S
----------------------------------|---------------------------------------|
----------------------------------|---------------------------------------|
--5-L-5-5-5-5-5-4-L-4-4-5-L-5-7-L-|--9-L-9-9-9-L-9-9-L-12--L-12-11-L-14-L-|
----------------------------------|---------------------------------------|
--3-L-3-3-3-3-3-2-L-2-2-3-L-3-5-L-|--7-L-7-7-7-L-7-7-L-10--L-10--9-L-12-L-|
----------------------------------|---------------------------------------|


                                     Interlude
  S S S S S S S S S S S S S S S S    S         S S S S S S E  E  S E  S S
----------------------------------|---------------------------------------|
----------------------------------|---------------------------------------|
--5-L-5-5-5-5-5-4-L-4-4-5-L-5-7-L-|---------------------------------------|
----------------------------------|--0h--------2-2-2-2-2-2----------------|
--3-L-3-3-3-3-3-2-L-2-2-3-L-3-5-L-|------------------------3--2--0-2--3-L-|
----------------------------------|---------------------------------------|


  S  S S S S S S E  E  S S  S  S S    S  S S S S S S E  E  S E  S S
-----------------------------------|--------------------------------|
-----------------------------------|--------------------------------|
-----------------------------------|--------------------------------|
--0h-2-2-2-2-2-2-------------------|--0h-2-2-2-2-2-2----------------|
-----------------3--2--0-2S-3S-2-0-|-----------------3--2--0-2--3-L-|
-----------------------------------|--------------------------------|


                                      Verse 1
  S  S S S S S S E  E  S S  S  S S    S       S S S S S S E  E  S E  S S
-----------------------------------|-------------------------------------|
-----------------------------------|-------------------------------------|
-----------------------------------|-------------------------------------|
--0h-2-2-2-2-2-2-------------------|--0h------2-2-2-2-2-2----------------|
-----------------3--2--0-2S-3S-2-0-|----------------------3--2--0-2--3-L-|
-----------------------------------|-------------------------------------|


  S  S S S S S S E  E  S S  S  S S    S  S S S S S S E  E  S E  S S
-----------------------------------|--------------------------------|
-----------------------------------|--------------------------------|
-----------------------------------|--------------------------------|
--0h-2-2-2-2-2-2-------------------|--0h-2-2-2-2-2-2----------------|
-----------------3--2--0-2S-3S-2-0-|-----------------3--2--0-2--3-L-|
-----------------------------------|--------------------------------|


  S  S S S S S S E  E  S S  S  S S    S  S S S S S S E  E  S E  S S
-----------------------------------|--------------------------------|
-----------------------------------|--------------------------------|
-----------------------------------|--------------------------------|
--0h-2-2-2-2-2-2-------------------|--0h-2-2-2-2-2-2----------------|
-----------------3--2--0-2S-3S-2-0-|-----------------3--2--0-2--3-L-|
-----------------------------------|--------------------------------|


  S  S S S S S S E  E  S S  S  S S    S  S S S S S S E  E  S E  S S
-----------------------------------|--------------------------------|
-----------------------------------|--------------------------------|
-----------------------------------|--------------------------------|
--0h-2-2-2-2-2-2-------------------|--0h-2-2-2-2-2-2----------------|
-----------------3--2--0-2S-3S-2-0-|-----------------3--2--0-2--3-L-|
-----------------------------------|--------------------------------|


                                      Chorus
  S  S S S S S S E  E  S S  S  S S    S      S S S S S S S S  S  S  S  S S S S
-----------------------------------|-------------------------------------------|
-----------------------------------|-------------------------------------------|
-----------------------------------|--9----------L-9-L-9-9-L-12--L-12-11-L-9-L-|
--0h-2-2-2-2-2-2-------------------|--9----------L-9-L-9-9-L-12--L-12-11-L-9-L-|
-----------------3--2--0-2S-3S-2-0-|--7----------L-7-L-7-7-L-10--L-10--9-L-7-L-|
-----------------------------------|-------------------------------------------|


   S S S S  S S  S S S S S  S  S  S  S  S
------------------------------------------|
------------------------------------------|
------------------------------------------|
--10-----L-10-L-10-9-L-9-9-10--L-10-12--L-|
--10-----L-10-L-10-9-L-9-9-10--L-10-12--L-|
---8-----L--8-L--8-7-L-7-7--8--L--8-10--L-|


  S S S S S S S S S  S  S  S  S S  S S
---------------------------------------|
---------------------------------------|
--9-----L-9-L-9-9-L-12--L-12-11-L-14-L-|
--9-----L-9-L-9-9-L-12--L-12-11-L-14-L-|
--7-----L-7-L-7-7-L-10--L-10--9-L-12-L-|
---------------------------------------|


   S S S S  S S  S S S S S  S  S  S  S  S
------------------------------------------|
------------------------------------------|
------------------------------------------|
--10-----L-10-L-10-9-L-9-9-10--L-10-12--L-|
--10-----L-10-L-10-9-L-9-9-10--L-10-12--L-|
---8-----L--8-L--8-7-L-7-7--8--L--8-10--L-|


  Interlude
  E         S E  S  E  S E  S S  S  S S    E  S E  S  E  S E  S S   S  S S
----------------------------------------|----------------------------------|
----------------------------------------|----------------------------------|
--9---------x---------------------------|--9--x----------------------------|
--9---------x-9--x-10--x-7--x-9--L-10-L-|--9--x-9--x-10--x-7--x-9S-10S-9-x-|
--7---------x-9--x-10--x-7--x-9--L-10-L-|--7--x-9--x-10--x-7--x-9S-10S-9-x-|
--------------7--x--8--x-5--x-7--L--8-L-|-------7--x--8--x-5--x-7S--8S-7-x-|


  E  S E  S  E  S E  S S  S  S S    E  S E  S  E   S. S. S. S S T T T
---------------------------------|------------------------------------|
---------------------------------|------------------------------------|
--9--x---------------------------|--9--x------------------------------|
--9--x-9--x-10--x-7--x-9--L-10-L-|--9--x-9--x-10--10-10-10-10-------L-|
--7--x-9--x-10--x-7--x-9--L-10-L-|--7--x-9--x-10--10-10-10-10-------L-|
-------7--x--8--x-5--x-7--L--8-L-|-------7--x--8---8--8--8--8-------L-|


  Verse 2
  S       S S S S S S E  E  S E  S S    S  S S S S S S E  E  S S  S  S S
-------------------------------------|-----------------------------------|
-------------------------------------|-----------------------------------|
-------------------------------------|-----------------------------------|
--0h------2-2-2-2-2-2----------------|--0h-2-2-2-2-2-2-------------------|
----------------------3--2--0-2--3-L-|-----------------3--2--0-2S-3S-2-0-|
-------------------------------------|-----------------------------------|


  S  S S S S S S E  E  S E  S S    S  S S S S S S E  E  S S  S  S S
--------------------------------|-----------------------------------|
--------------------------------|-----------------------------------|
--------------------------------|-----------------------------------|
--0h-2-2-2-2-2-2----------------|--0h-2-2-2-2-2-2-------------------|
-----------------3--2--0-2--3-L-|-----------------3--2--0-2S-3S-2-0-|
--------------------------------|-----------------------------------|


  S  S S S S S S E  E  S E  S S    S  S S S S S S E  E  S S  S  S S
--------------------------------|-----------------------------------|
--------------------------------|-----------------------------------|
--------------------------------|-----------------------------------|
--0h-2-2-2-2-2-2----------------|--0h-2-2-2-2-2-2-------------------|
-----------------3--2--0-2--3-L-|-----------------3--2--0-2S-3S-2-0-|
--------------------------------|-----------------------------------|


  S  S S S S S S E  E  S E  S S    S  S S S S S S E  E  S S  S  S S
--------------------------------|-----------------------------------|
--------------------------------|-----------------------------------|
--------------------------------|-----------------------------------|
--0h-2-2-2-2-2-2----------------|--0h-2-2-2-2-2-2-------------------|
-----------------3--2--0-2--3-L-|-----------------3--2--0-2S-3S-2-0-|
--------------------------------|-----------------------------------|


  Chorus
  S      S S S S S S S S  S  S  S  S S S S
-------------------------------------------|
-------------------------------------------|
--9----------L-9-L-9-9-L-12--L-12-11-L-9-L-|
--9----------L-9-L-9-9-L-12--L-12-11-L-9-L-|
--7----------L-7-L-7-7-L-10--L-10--9-L-7-L-|
-------------------------------------------|


   S S S S  S S  S S S S S  S  S  S  S  S
------------------------------------------|
------------------------------------------|
------------------------------------------|
--10-----L-10-L-10-9-L-9-9-10--L-10-12--L-|
--10-----L-10-L-10-9-L-9-9-10--L-10-12--L-|
---8-----L--8-L--8-7-L-7-7--8--L--8-10--L-|


  S S S S S S S S S  S  S  S  S S  S S
---------------------------------------|
---------------------------------------|
--9-----L-9-L-9-9-L-12--L-12-11-L-14-L-|
--9-----L-9-L-9-9-L-12--L-12-11-L-14-L-|
--7-----L-7-L-7-7-L-10--L-10--9-L-12-L-|
---------------------------------------|


   S S S S  S S  S S S S S  S  S  S  S  S
------------------------------------------|
------------------------------------------|
------------------------------------------|
--10-----L-10-L-10-9-L-9-9-10--L-10-12--L-|
--10-----L-10-L-10-9-L-9-9-10--L-10-12--L-|
---8-----L--8-L--8-7-L-7-7--8--L--8-10--L-|


  S S S S S S S S S  S  S  S  S S S S
--------------------------------------|
--------------------------------------|
--9-----L-9-L-9-9-L-12--L-12-11-L-9-L-|
--9-----L-9-L-9-9-L-12--L-12-11-L-9-L-|
--7-----L-7-L-7-7-L-10--L-10--9-L-7-L-|
--------------------------------------|


   S S S S  S S  S S S S S  S  S  S  S  S
------------------------------------------|
------------------------------------------|
------------------------------------------|
--10-----L-10-L-10-9-L-9-9-10--L-10-12--L-|
--10-----L-10-L-10-9-L-9-9-10--L-10-12--L-|
---8-----L--8-L--8-7-L-7-7--8--L--8-10--L-|


  S S S S S S S S S  S  S  S  S S  S S
---------------------------------------|
---------------------------------------|
--9-----L-9-L-9-9-L-12--L-12-11-L-14-L-|
--9-----L-9-L-9-9-L-12--L-12-11-L-14-L-|
--7-----L-7-L-7-7-L-10--L-10--9-L-12-L-|
---------------------------------------|


   S S S S  S S  S S S S S  S  S  S  S  S
------------------------------------------|
------------------------------------------|
------------------------------------------|
--10-----L-10-L-10-9-L-9-9-10--L-10-12--L-|
--10-----L-10-L-10-9-L-9-9-10--L-10-12--L-|
---8-----L--8-L--8-7-L-7-7--8--L--8-10--L-|


  Interlude
  E         S S S S E  S S S S  E   E
---------------------------------------|
---------------------------------------|
--9---------L-9-9-9-9--L-9-9-9-12--11--|
--9---------L-9-9-9-9--L-9-9-9-12--11--|
--7---------L-7-7-7-7--L-7-7-7-10---9--|
---------------------------------------|


   E  S  S  S  S  E  S  S  S  S  E   E     E  S S S S E  S S S S  E  E
----------------------------------------|-------------------------------|
----------------------------------------|-------------------------------|
--14--L-14-14-14-14--L-14-14-14-11--12--|--9--L-9-9-9-9--L-9-9-9--------|
--14--L-14-14-14-14--L-14-14-14-11--12--|--9--L-9-9-9-9--L-9-9-9-10--9--|
--12--L-12-12-12-12--L-12-12-12--9--10--|--7--L-7-7-7-7--L-7-7-7-10--9--|
----------------------------------------|-------------------------8--7--|


  E  S S S S E  S S S S S   S  S S    E  S S S S E  S S S S  E   E
-----------------------------------|--------------------------------|
-----------------------------------|--------------------------------|
-----------------------------------|--9--L-9-9-9-9--L-9-9-9-12--11--|
--7--L-7-7-7-7--L-7-7-7-9S-10S-9-L-|--9--L-9-9-9-9--L-9-9-9-12--11--|
--7--L-7-7-7-7--L-7-7-7-9--10S-9-L-|--7--L-7-7-7-7--L-7-7-7-10---9--|
--5--L-5-5-5-5--L-5-5-5-7S--8S-7-L-|--------------------------------|


   E  S  S  S  S  E  S  S  S  S  E   E     E  S S S S E  S S S S  E  E
----------------------------------------|-------------------------------|
----------------------------------------|-------------------------------|
--14--L-14-14-14-14--L-14-14-14-11--12--|--9--L-9-9-9-9--L-9-9-9--------|
--14--L-14-14-14-14--L-14-14-14-11--12--|--9--L-9-9-9-9--L-9-9-9-10--9--|
--12--L-12-12-12-12--L-12-12-12--9--10--|--7--L-7-7-7-7--L-7-7-7-10--9--|
----------------------------------------|-------------------------8--7--|


                                      Solo
  E  S S S S E  S S S S S   S  S S    H        E  S S S S S S
-----------------------------------|---------------------------|
-----------------------------------|---------------------------|
-----------------------------------|---------------------------|
--7--L-7-7-7-7--L-7-7-7-9S-10S-9-L-|-----------5--4-5-4--------|
--7--L-7-7-7-7--L-7-7-7-9--10S-9-L-|--7-----------------5-L-5h-|
--5--L-5-5-5-5--L-5-5-5-7S--8S-7-L-|---------------------------|


  H        E  S S S S S S    H        E  S S S S S S     W
--------------------------|---------------------------|-------------------|
--------------------------|---------------------------|-------------------|
--------------------------|---------------------------|-------------------|
-----------5--4-5-4-7-L-5-|--L--------5--4-5-4--------|-------------------|
--7-----------------------|--------------------5-L-5h-|--7----------------|
--------------------------|---------------------------|-------------------|


  S  E  E  E  E  E  S S S E     S  E  E  E  E  E  S S S  S S
-----------------------------|-------------------------------|
-----------------8--7-8-7----|-----------------8--7-8-7-10-L-|
--7S-9--L--L--L-----------7--|--7S-9--L--L--L----------------|
-----------------------------|-------------------------------|
-----------------------------|-------------------------------|
-----------------------------|-------------------------------|


  E  E  E  S S S E  S S S E     S  E  E  E  E  E  E  E  S
-----------------------------|----------------------------|
--8--L--8--8-8-L-8--7-8-7----|----------------------------|
--------------------------7--|--7S-9--L--L--L--L--L--L--L-|
-----------------------------|----------------------------|
-----------------------------|----------------------------|
-----------------------------|----------------------------|


  Interlude
  S         S S S S S S E  E  S E  S S    S  S S S S S S E  E  S S  S  S S
---------------------------------------|-----------------------------------|
---------------------------------------|-----------------------------------|
---------------------------------------|-----------------------------------|
--0h--------2-2-2-2-2-2----------------|--0h-2-2-2-2-2-2-------------------|
------------------------3--2--0-2--3-L-|-----------------3--2--0-2S-3S-2-0-|
---------------------------------------|-----------------------------------|


  S  S S S S S S E  E  S E  S S    S  S S S S S S E  E  S S  S  S S
--------------------------------|-----------------------------------|
--------------------------------|-----------------------------------|
--------------------------------|-----------------------------------|
--0h-2-2-2-2-2-2----------------|--0h-2-2-2-2-2-2-------------------|
-----------------3--2--0-2--3-L-|-----------------3--2--0-2S-3S-2-0-|
--------------------------------|-----------------------------------|


  Chorus
  S      S S S S S S S S  S  S  S  S S S S
-------------------------------------------|
-------------------------------------------|
--9----------L-9-L-9-9-L-12--L-12-11-L-9-L-|
--9----------L-9-L-9-9-L-12--L-12-11-L-9-L-|
--7----------L-7-L-7-7-L-10--L-10--9-L-7-L-|
-------------------------------------------|


   S S S S  S S  S S S S S  S  S  S  S  S
------------------------------------------|
------------------------------------------|
------------------------------------------|
--10-----L-10-L-10-9-L-9-9-10--L-10-12--L-|
--10-----L-10-L-10-9-L-9-9-10--L-10-12--L-|
---8-----L--8-L--8-7-L-7-7--8--L--8-10--L-|


  S S S S S S S S S  S  S  S  S S  S S
---------------------------------------|
---------------------------------------|
--9-----L-9-L-9-9-L-12--L-12-11-L-14-L-|
--9-----L-9-L-9-9-L-12--L-12-11-L-14-L-|
--7-----L-7-L-7-7-L-10--L-10--9-L-12-L-|
---------------------------------------|


   S S S S  S S  S S S S S  S  S  S  S  S
------------------------------------------|
------------------------------------------|
------------------------------------------|
--10-----L-10-L-10-9-L-9-9-10--L-10-12--L-|
--10-----L-10-L-10-9-L-9-9-10--L-10-12--L-|
---8-----L--8-L--8-7-L-7-7--8--L--8-10--L-|


  S S S S S S S S S  S  S  S  S S S S
--------------------------------------|
--------------------------------------|
--9-----L-9-L-9-9-L-12--L-12-11-L-9-L-|
--9-----L-9-L-9-9-L-12--L-12-11-L-9-L-|
--7-----L-7-L-7-7-L-10--L-10--9-L-7-L-|
--------------------------------------|


   S S S S  S S  S S S S S  S  S  S  S  S
------------------------------------------|
------------------------------------------|
------------------------------------------|
--10-----L-10-L-10-9-L-9-9-10--L-10-12--L-|
--10-----L-10-L-10-9-L-9-9-10--L-10-12--L-|
---8-----L--8-L--8-7-L-7-7--8--L--8-10--L-|


  S S S S S S S S S  S  S  S  S S  S S
---------------------------------------|
---------------------------------------|
--9-----L-9-L-9-9-L-12--L-12-11-L-14-L-|
--9-----L-9-L-9-9-L-12--L-12-11-L-14-L-|
--7-----L-7-L-7-7-L-10--L-10--9-L-12-L-|
---------------------------------------|


   S S S S  S S  S S S S S  S  S  S  S  S
------------------------------------------|
------------------------------------------|
------------------------------------------|
--10-----L-10-L-10-9-L-9-9-10--L-10-12--L-|
--10-----L-10-L-10-9-L-9-9-10--L-10-12--L-|
---8-----L--8-L--8-7-L-7-7--8--L--8-10--L-|


  Chorus
  S      S S S S S S S S  S  S  S  S S S S
-------------------------------------------|
-------------------------------------------|
--9----------L-9-L-9-9-L-12--L-12-11-L-9-L-|
--9----------L-9-L-9-9-L-12--L-12-11-L-9-L-|
--7----------L-7-L-7-7-L-10--L-10--9-L-7-L-|
-------------------------------------------|


   S S S S  S S  S S S S S  S  S  S  S  S
------------------------------------------|
------------------------------------------|
------------------------------------------|
--10-----L-10-L-10-9-L-9-9-10--L-10-12--L-|
--10-----L-10-L-10-9-L-9-9-10--L-10-12--L-|
---8-----L--8-L--8-7-L-7-7--8--L--8-10--L-|


  S S S S S S S S S  S  S  S  S S  S S
---------------------------------------|
---------------------------------------|
--9-----L-9-L-9-9-L-12--L-12-11-L-14-L-|
--9-----L-9-L-9-9-L-12--L-12-11-L-14-L-|
--7-----L-7-L-7-7-L-10--L-10--9-L-12-L-|
---------------------------------------|


   S S S S  S S  S S S S S  S  S  S  S  S
------------------------------------------|
------------------------------------------|
------------------------------------------|
--10-----L-10-L-10-9-L-9-9-10--L-10-12--L-|
--10-----L-10-L-10-9-L-9-9-10--L-10-12--L-|
---8-----L--8-L--8-7-L-7-7--8--L--8-10--L-|


  S S S S S S S S S  S  S  S  S S S S
--------------------------------------|
--------------------------------------|
--9-----L-9-L-9-9-L-12--L-12-11-L-9-L-|
--9-----L-9-L-9-9-L-12--L-12-11-L-9-L-|
--7-----L-7-L-7-7-L-10--L-10--9-L-7-L-|
--------------------------------------|


   S S S S  S S  S S S S S  S  S  S  S  S
------------------------------------------|
------------------------------------------|
------------------------------------------|
--10-----L-10-L-10-9-L-9-9-10--L-10-12--L-|
--10-----L-10-L-10-9-L-9-9-10--L-10-12--L-|
---8-----L--8-L--8-7-L-7-7--8--L--8-10--L-|


  S S S S S S S S S  S  S  S  S S  S S
---------------------------------------|
---------------------------------------|
--9-----L-9-L-9-9-L-12--L-12-11-L-14-L-|
--9-----L-9-L-9-9-L-12--L-12-11-L-14-L-|
--7-----L-7-L-7-7-L-10--L-10--9-L-12-L-|
---------------------------------------|


                                             Outro
   S S S S  S S  S S S S S  S  S  S  S  S    E     S E  S  E  S E  S S  S  S S
------------------------------------------|------------------------------------|
------------------------------------------|------------------------------------|
------------------------------------------|--9-----x---------------------------|
--10-----L-10-L-10-9-L-9-9-10--L-10-12--L-|--9-----x-9--x-10--x-7--x-9--L-10-L-|
--10-----L-10-L-10-9-L-9-9-10--L-10-12--L-|--7-----x-9--x-10--x-7--x-9--L-10-L-|
---8-----L--8-L--8-7-L-7-7--8--L--8-10--L-|----------7--x--8--x-5--x-7--L--8-L-|


  E  S E  S  E  S E  S S   S  S S    E  S E  S  E  S E  S S  S  S S
----------------------------------|---------------------------------|
----------------------------------|---------------------------------|
--9--x----------------------------|--9--x---------------------------|
--9--x-9--x-10--x-7--x-9S-10S-9-x-|--9--x-9--x-10--x-7--x-9--L-10-L-|
--7--x-9--x-10--x-7--x-9S-10S-9-x-|--7--x-9--x-10--x-7--x-9--L-10-L-|
-------7--x--8--x-5--x-7S--8S-7-x-|-------7--x--8--x-5--x-7--L--8-L-|


  E  S E  S  E  E  E  E  E
----------------------------||
----------------------------||
--9--x----------------------||
--9--x-9--x-10--------------||
--7--x-9--x-10--------------||
-------7--x--8--------------||


Duration Legend
---------------
W - whole
H - half
Q - quarter
E - 8th
S - 16th
T - 32nd
X - 64th
. - note dotted
|-n-|  - n-tuplets


Tablature Legend
----------------
L - tied note
x - dead note
g - grace note
(n) - ghost note
> - accentuded note
NH - natural harmonic
AH - artificial harmonic
TH - tapped harmonic
SH - semi harmonic
PH - pitch harmonic
h - hammer on
p - pull off
b - bend
br - bendRelease
pb - preBend
pbr - preBendRelease
brb - bendReleaseBend
\n/ - tremolo bar dip
\n - tremolo bar dive
-/n - tremolo bar Release up
/n\ - tremolo bar inverted dip
/n - tremolo bar return
-\n - tremolo bar Release down
S - shift slide
s - legato slide
/ -  slide into from below or out of upwards
\ -  slide into from above or out of downwards
~ - vibrato
W - wide vibrato
tr - trill
TP - tremolo picking
T - tapping
S - slap
P - pop
< - fade in
^ - brush up
v - brush down
comments
We did not receive enough feedback on this tab! Please rate:
print report bad tab
1 2 3 4 5
I want to post or [tab]
guest
You may want to rate the tab now too:
select rating
Please do not post tabs as comments. Select "correction" instead!