Oops, an error
Loading. Please wait.

Kryptonite Tab

7,686 views 33 this week
no commentswrite comment
1 2 3 4 5
accurate
x 4
Autoscroll
+/-
esc
set tempo
stop
Contributor
Difficulty
novice
WARNING: You are trying to view
                                    content from Ultimate-Guitar.com
                                    in an unauthorized application,
                                    which is prohibited.

                                    Please use an official Ultimate
                                    Guitar Tabs application for iPhone,
                                    iPad or Android to access legitimate
                                    chords, guitar, bass, and drum tabs
                                    from Ultimate-Guitar.com database.

                                    Type "ultimate guitar tabs" in Apple
                                    App Store's or Android Market's
                                    search to find the application.
                                                             


                                                                    
Guitar 1



     E  E  E  Q    E  E  E     E  E  E  E  E  E  E  E   
E||-------------------------|--------------------------|
B||-----------3-------------|-----------------------0--|
G||--------4-------4-----0--|-----------0--------2-----|
D||-----4-------------4-----|--------0--------2--------|
A||--2----------------------|-----2--------0-----------|
E||-------------------------|--3-----------------------|


  E  E  E  Q    E  E  E     E  E  E  E  E  E  E  E     E  E  E  Q    E  E  E   
-------------------------|--------------------------|-------------------------|
-----------3-------------|-----------------------0--|-----------3-------------|
--------4-------4-----0--|-----------0--------2-----|--------4-------4-----0--|
-----4-------------4-----|--------0--------2--------|-----4-------------4-----|
--2----------------------|-----2--------0-----------|--2----------------------|
-------------------------|--3-----------------------|-------------------------|


  E  E  E  E  E  E  E  E     E  E  E  Q    E  E  E     E  E  E  E  E  E  E  E   
--------------------------|-------------------------|-----------------0--------|
-----------------------0--|-----------3-------------|--------------------0-----|
-----------0--------2-----|--------4-------4-----0--|-----------0-----------2--|
--------0--------2--------|-----4-------------4-----|--------0-----------------|
-----2--------0-----------|--2----------------------|-----2--------0-----------|
--3-----------------------|-------------------------|--3-----------------------|


  E  E  E  Q    E  E  E     E  E  E  E  E  E  E  E     E  E  E  Q    E  E  E   
-------------------------|--------------------------|-------------------------|
-----------3-------------|-----------------------0--|-----------3-------------|
--------4-------4-----0--|-----------0--------2-----|--------4-------4-----0--|
-----4-------------4-----|--------0--------2--------|-----4-------------4-----|
--2----------------------|-----2--------0-----------|--2----------------------|
-------------------------|--3-----------------------|-------------------------|


  E  E  E  E  E  E  E  E     E  E  E  Q    E  E  E     E  E  E  E  E  E  E  E   
--------------------------|-------------------------|--------------------------|
-----------------------0--|-----------3-------------|-----------------------0--|
-----------0--------2-----|--------4-------4-----0--|-----------0--------2-----|
--------0--------2--------|-----4-------------4-----|--------0--------2--------|
-----2--------0-----------|--2----------------------|-----2--------0-----------|
--3-----------------------|-------------------------|--3-----------------------|


  E  E  E  Q    E  E  E     E  E  E  E  E  E  E  E   
-------------------------|-----------------0--------|
-----------3-------------|--------------------0-----|
--------4-------4-----0--|-----------0-----------2--|
-----4-------------4-----|--------0-----------------|
--2----------------------|-----2--------0-----------|
-------------------------|--3-----------------------|


  E  E.  S S S E  E.  S S S    E  E.  S S S E  E.  S S S  
--2--2---2-2-2-2--2---2-2-2-|--3--3---3-3-3-0--0---0-0-0-|
--3--3---3-3-3-3--3---3-3-3-|--3--3---3-3-3-0--0---0-0-0-|
--4--4---4-4-4-4--4---4-4-4-|--0--0---0-0-0-2--2---2-2-2-|
--4--4---4-4-4-4--4---4-4-4-|--0--0---0-0-0-2--2---2-2-2-|
--2--2---2-2-2-2--2---2-2-2-|--2--2---2-2-2-0--0---0-0-0-|
----------------------------|--3--3---3-3-3--------------|


  E  E.  S S S E  E.  S S S    E  E.  S S S E  E.  S S S  
--2--2---2-2-2-2--2---2-2-2-|--3--3---3-3-3-0--0---0-0-0-|
--3--3---3-3-3-3--3---3-3-3-|--3--3---3-3-3-0--0---0-0-0-|
--4--4---4-4-4-4--4---4-4-4-|--0--0---0-0-0-2--2---2-2-2-|
--4--4---4-4-4-4--4---4-4-4-|--0--0---0-0-0-2--2---2-2-2-|
--2--2---2-2-2-2--2---2-2-2-|--2--2---2-2-2-0--0---0-0-0-|
----------------------------|--3--3---3-3-3--------------|


  E  E  E  Q    E  E  E     E  E  E  E  E  E  E  E     E  E  E  Q    E  E  E   
-------------------------|--------------------------|-------------------------|
-----------3-------------|-----------------------0--|-----------3-------------|
--------4-------4-----0--|-----------0--------2-----|--------4-------4-----0--|
-----4-------------4-----|--------0--------2--------|-----4-------------4-----|
--2----------------------|-----2--------0-----------|--2----------------------|
-------------------------|--3-----------------------|-------------------------|


  E  E  E  E  E  E  E  E     E  E  E  Q    E  E  E     E  E  E  E  E  E  E  E   
--------------------------|-------------------------|--------------------------|
-----------------------0--|-----------3-------------|-----------------------0--|
-----------0--------2-----|--------4-------4-----0--|-----------0--------2-----|
--------0--------2--------|-----4-------------4-----|--------0--------2--------|
-----2--------0-----------|--2----------------------|-----2--------0-----------|
--3-----------------------|-------------------------|--3-----------------------|


  E  E  E  Q    E  E  E     E  E  E  E  E  E  E  E     W                 
-------------------------|--------------------------|-------------------|
-----------3-------------|-----------------------0--|-------------------|
--------4-------4-----0--|-----------0--------2-----|-------------------|
-----4-------------4-----|--------0--------2--------|-------------------|
--2----------------------|-----2--------0-----------|-------------------|
-------------------------|--3-----------------------|-------------------|


  W                   W                   W                   W                 
-------------------|-------------------|-------------------|-------------------|
-------------------|-------------------|-------------------|-------------------|
-------------------|-------------------|-------------------|-------------------|
-------------------|-------------------|-------------------|-------------------|
-------------------|-------------------|-------------------|-------------------|
-------------------|-------------------|-------------------|-------------------|


  W                   W                   W                 
-------------------|-------------------|-------------------|
-------------------|-------------------|-------------------|
-------------------|-------------------|-------------------|
-------------------|-------------------|-------------------|
-------------------|-------------------|-------------------|
-------------------|-------------------|-------------------|


  E  E.  S S S E  E.  S S S    E  E.  S S S E  E.  S S S  
--2--2---2-2-2-2--2---2-2-2-|--3--3---3-3-3-0--0---0-0-0-|
--3--3---3-3-3-3--3---3-3-3-|--3--3---3-3-3-0--0---0-0-0-|
--4--4---4-4-4-4--4---4-4-4-|--0--0---0-0-0-2--2---2-2-2-|
--4--4---4-4-4-4--4---4-4-4-|--0--0---0-0-0-2--2---2-2-2-|
--2--2---2-2-2-2--2---2-2-2-|--2--2---2-2-2-0--0---0-0-0-|
----------------------------|--3--3---3-3-3--------------|


  E  E.  S S S E  E.  S S S    E  E.  S S S E  E.  S S S  
--2--2---2-2-2-2--2---2-2-2-|--3--3---3-3-3-0--0---0-0-0-|
--3--3---3-3-3-3--3---3-3-3-|--3--3---3-3-3-0--0---0-0-0-|
--4--4---4-4-4-4--4---4-4-4-|--0--0---0-0-0-2--2---2-2-2-|
--4--4---4-4-4-4--4---4-4-4-|--0--0---0-0-0-2--2---2-2-2-|
--2--2---2-2-2-2--2---2-2-2-|--2--2---2-2-2-0--0---0-0-0-|
----------------------------|--3--3---3-3-3--------------|


  E  E  E  Q    E  E  E     E  E  E  E  E  E  E  E     E  E  E  Q    E  E  E   
-------------------------|--------------------------|-------------------------|
-----------3-------------|-----------------------0--|-----------3-------------|
--------4-------4-----0--|-----------0--------2-----|--------4-------4-----0--|
-----4-------------4-----|--------0--------2--------|-----4-------------4-----|
--2----------------------|-----2--------0-----------|--2----------------------|
-------------------------|--3-----------------------|-------------------------|


  E  E  E  E  E  E  E  E     E  E  E  Q    E  E  E     E  E  E  E  E  E  E  E   
--------------------------|-------------------------|--------------------------|
-----------------------0--|-----------3-------------|-----------------------0--|
-----------0--------2-----|--------4-------4-----0--|-----------0--------2-----|
--------0--------2--------|-----4-------------4-----|--------0--------2--------|
-----2--------0-----------|--2----------------------|-----2--------0-----------|
--3-----------------------|-------------------------|--3-----------------------|


  E  E  E  Q    E  E  E     E  E  E  E  E  E  E  E     W                 
-------------------------|--------------------------|-------------------|
-----------3-------------|-----------------------0--|-------------------|
--------4-------4-----0--|-----------0--------2-----|-------------------|
-----4-------------4-----|--------0--------2--------|-------------------|
--2----------------------|-----2--------0-----------|-------------------|
-------------------------|--3-----------------------|-------------------|


  W                   W                   W                   W                 
-------------------|-------------------|-------------------|-------------------|
-------------------|-------------------|-------------------|-------------------|
-------------------|-------------------|-------------------|-------------------|
-------------------|-------------------|-------------------|-------------------|
-------------------|-------------------|-------------------|-------------------|
-------------------|-------------------|-------------------|-------------------|


  W                   W                   W                   W                 
-------------------|-------------------|-------------------|-------------------|
-------------------|-------------------|-------------------|-------------------|
-------------------|-------------------|-------------------|-------------------|
-------------------|-------------------|-------------------|-------------------|
-------------------|-------------------|-------------------|-------------------|
-------------------|-------------------|-------------------|-------------------|


  W                   W                   W                   W                 
-------------------|-------------------|-------------------|-------------------|
-------------------|-------------------|-------------------|-------------------|
-------------------|-------------------|-------------------|-------------------|
-------------------|-------------------|-------------------|-------------------|
-------------------|-------------------|-------------------|-------------------|
-------------------|-------------------|-------------------|-------------------|


  W                   W                   W                 
-------------------|-------------------|-------------------|
-------------------|-------------------|-------------------|
-------------------|-------------------|-------------------|
-------------------|-------------------|-------------------|
-------------------|-------------------|-------------------|
-------------------|-------------------|-------------------|


  E  E  E  Q    E  E  E     E  E  E  E  E  E  E  E     E  E  E  Q    E  E  E   
-----------2-------------|--------0-----------3-----|-----------2-------------|
----------------3-----3--|-----------2-----------3--|----------------3-----3--|
--------4----------4-----|-----2--------------------|--------4----------4-----|
-----4-------------------|--2-----------------------|-----4-------------------|
--2----------------------|-----------------2--------|--2----------------------|
-------------------------|--------------3-----------|-------------------------|


  E  E  E  E  E  E  E  E     E  E  E  Q    E  E  E     E  E  E  E  E  E  E  E   
--------0-----------3-----|-----------2-------------|--------0-----------3-----|
-----------2-----------3--|----------------3-----3--|-----------2-----------3--|
-----2--------------------|--------4----------4-----|-----2--------------------|
--2-----------------------|-----4-------------------|--2-----------------------|
-----------------2--------|--2----------------------|-----------------2--------|
--------------3-----------|-------------------------|--------------3-----------|


  E  E  E  Q    E  E  E     E  E  E  E  E  E  E  E     E  E  E  Q    E  E  E   
-----------2-------------|--------0-----------3-----|-----------2-------------|
----------------3-----3--|-----------2-----------3--|----------------3-----3--|
--------4----------4-----|-----2--------------------|--------4----------4-----|
-----4-------------------|--2-----------------------|-----4-------------------|
--2----------------------|-----------------2--------|--2----------------------|
-------------------------|--------------3-----------|-------------------------|


  E  E  E  E  E  E  E  E     E  E  E  Q    E  E  E     E  E  E  E  E  E  E  E   
--------0-----------3-----|-----------2-------------|--------0-----------3-----|
-----------2-----------3--|----------------3-----3--|-----------2-----------3--|
-----2--------------------|--------4----------4-----|-----2--------------------|
--2-----------------------|-----4-------------------|--2-----------------------|
-----------------2--------|--2----------------------|-----------------2--------|
--------------3-----------|-------------------------|--------------3-----------|


  W                   W                   W                   W                 
-------------------|-------------------|-------------------|-------------------|
-------------------|-------------------|-------------------|-------------------|
-------------------|-------------------|-------------------|-------------------|
-------------------|-------------------|-------------------|-------------------|
-------------------|-------------------|-------------------|-------------------|
-------------------|-------------------|-------------------|-------------------|


  W                   W                   W                   W                 
-------------------|-------------------|-------------------|-------------------|
-------------------|-------------------|-------------------|-------------------|
-------------------|-------------------|-------------------|-------------------|
-------------------|-------------------|-------------------|-------------------|
-------------------|-------------------|-------------------|-------------------|
-------------------|-------------------|-------------------|-------------------|


  W                   W                   W                   W                 
-------------------|-------------------|-------------------|-------------------|
-------------------|-------------------|-------------------|-------------------|
-------------------|-------------------|-------------------|-------------------|
-------------------|-------------------|-------------------|-------------------|
-------------------|-------------------|-------------------|-------------------|
-------------------|-------------------|-------------------|-------------------|


  W                   W                   W                   W                 
-------------------|-------------------|-------------------|-------------------|
-------------------|-------------------|-------------------|-------------------|
-------------------|-------------------|-------------------|-------------------|
-------------------|-------------------|-------------------|-------------------|
-------------------|-------------------|-------------------|-------------------|
-------------------|-------------------|-------------------|-------------------|


  W                  
-------------------||
-------------------||
-------------------||
-------------------||
-------------------||
-------------------||




Duration Legend
---------------
W - whole
H - half
Q - quarter
E - 8th
S - 16th
T - 32nd
X - 64th
. - note dotted
|-n-|  - n-tuplets


Tablature Legend
----------------
L - tied note
x - dead note
g - grace note
(n) - ghost note
> - accentuded note
NH - natural harmonic
AH - artificial harmonic
TH - tapped harmonic
SH - semi harmonic
PH - pitch harmonic
h - hammer on
p - pull off
b - bend
br - bendRelease
pb - preBend
pbr - preBendRelease
brb - bendReleaseBend
\n/ - tremolo bar dip
\n - tremolo bar dive
-/n - tremolo bar Release up
/n\ - tremolo bar inverted dip
/n - tremolo bar return
-\n - tremolo bar Release down
S - shift slide
s - legato slide
/ -  slide into from below or out of upwards
\ -  slide into from above or out of downwards
~ - vibrato
W - wide vibrato
tr - trill
TP - tremolo picking
T - tapping
S - slap
P - pop
< - fade in
^ - brush up
v - brush down
comments
print report bad tab
I want to post or [tab]
guest
You may want to rate the tab now too:
select rating
Please do not post tabs as comments. Select "correction" instead!