Oops, an error
Loading. Please wait.

Assassins Of The Light Tab

1,454 views 1 this week
no commentswrite comment
1 2 3 4 5
please rate
Autoscroll
+/-
esc
set tempo
stop
Contributor
Hey! There's an official Ultimate Guitar app which is ideal
for learning songs when you're away from computer. Get the app
WARNING: You are trying to view
                                    content from Ultimate-Guitar.com
                                    in an unauthorized application,
                                    which is prohibited.

                                    Please use an official Ultimate
                                    Guitar Tabs application for iPhone,
                                    iPad or Android to access legitimate
                                    chords, guitar, bass, and drum tabs
                                    from Ultimate-Guitar.com database.

                                    Type "ultimate guitar tabs" in Apple
                                    App Store's or Android Market's
                                    search to find the application.
-------------------------------------------------------------------------------
                 Assassins Of The Light - 3 Inches of Blood
-------------------------------------------------------------------------------
Tabbed by:  Old Rasputin
Email:  einsteinonthebeach40@gmail.com
          
Tuning: E Standard - E A D G B e

Note: Sometimes I feel it necessary to notate rhythm; my conventions are as
      follows:    
                W = whole note/rest          R = rest
                h = half note/rest        
                q = quarter note/rest        /
                e = eighth note/rest       o/o = repeat previous bar
                s = sixteenth note/rest    /
                h.= dotted half note

                Tied note values are connected with an underscore.
                example: s__(s)  (a 16th tied to another 16th)

                anything under: /--3--\ is a triplet

                Double bar lines indicate the end of parts.

                Bar lines occur every 4 beats.
-------------------------------------------------------------------------------
       Watch the ties on this one!  Almost every single phrase in this tune 
starts on the "and" of beat 4, which is why each section begins with a pick-up
note.  (the Intro and Outro are the only exceptions)  Similarly, the last note 
of each section (appearing on the "and" of 4 in the last bar) is actually the
pick-up to the next section.
  
       If you are unaccustomed to reading ties, remember: you don't re-strike
the note below the parenthesis.  For example, the note/chord appearing below
this - (e) - would be held through from the previous note and not actually
stuck with the right hand.

===============================================================================
Intro:

   q  q  e e  e e   e e  q  q  e e   e e  e q  e  e e__(e)e  e e_(q)  q
e|----------------|----------------|------------------|-------------------|
B|----------------|----------------|------------------|-------------------|
G|----------------|----------------|------------------|--------9--9---9-\-|
D|----------------|------7---------|--------5--5----2-|-2-2----9--9---9-\-|
A|-7--9----9------|-7/9--5--9------|-7/9----5--5----2-|-2-2----7--7---7-\-|
E|-5--7--7-7--R-7-|-5/7-----7--7-7-|-5/7--5-3--3--X-0-|-0-0--X------------|
         pm     pm            pm--|       pm


                   /--3-\
   q  q  e e  e e  e e  e  e e  e e  e e_(e)e  e q   q._____(h..)    e____
e|----------------|---------------------|------------------|-----------||
B|----------------|---------------------|------------------|-----------||
G|----------------|--------------------7|-7-7----2---2-----|-2-------2-||
D|----------------|-------------7-9----7|-7-7----2---2-----|-2-------2-||
A|-7--9----9------|9-10-9--7-9-------0-5|-5-5--R-0---0-----|-0-------0-||
E|-5--7--7-7--R-7-|---------------------|------------------|-----------||
         pm     pm                   pm

===============================================================================
Riff 1:   (In bar 3 the upper notes are left channel and the lower are right)
                                                 __v__
                                                /     \
   e__(e)e e e e e e e   e e e e e  e e e__(e)e e e e e e e__(e)e e q   e e e__
e|---|-----------------|------------------|-----------------|-----------------|
B|---|-----------------|------------------|-----------------|-----------------|
G|-2-|-2-4-------------|------------------|-----4---2h4-----|-------9---9---2-|
D|-2-|-2-4-------------|------------------|-----5-R-4h5---2-|-2-2---9---9---2-|
A|-0-|-0-2-2-2-2-2-2-2-|-2-2-0-2-/5-4-R-5-|-5-5-----------2-|-2-2---7---7---0-|
E|---|-----------------|----------------3-|-3-3---------x-0-|-0-0-x-------x---|
           pm - - - - - - - - - -|           

                                      
                                      1st ending - - - - - - - - - - -\
__(e)e e e e e e e__(e)e e e e e e e__(e)e e q   q.____(h..)        e__
e|-----------------|-----------------|----------------|---------------|
B|-----------------|-----------------|----------------|---------------|
G|-2-4-----4-----4-|-4-4-----2h4---7-|-7-7---2---2----|-2-----------2-|
D|-2-4-----4-----4-|-4-4-2-4-------7-|-7-7---2---2----|-2-----------2-|
A|-0-2-2-2-2-2-2-2-|-2-2-----------5-|-5-5---0---0----|-0-----------0-|
E|-----------------|-------------x---|-----x----------|---------------|
       pm-|  pm-|        pm-|                                     
                                      2nd ending - - - - - - - - - - - \
                                    __(e)e e e_(h)_____(h)    e e e e___
                                    e|----------------|---------------||
                                    B|----------------|---------------||
                                    G|-7-7---2-2------|-2-------------||
                                    D|-7-7---2-2------|-2-----5-5-5-4-||
                                    A|-5-5---0-0------|-0-----x-x-x---||
                                    E|-----x----------|-------3-3-3---||

===============================================================================
Riff 2:

Left Channel:

   e__(e)e e e e e...                  e__(e)                              e__
e|---|-----------------|-----------------|-----------------|-----------------|
B|---|-----------------|-----------------|-----------------|-----------------|
G|---|-----------------|-----------------|-----------------|-----------------|
D|-4-|-4-------4-------|---------2-5-R-4-|-4-------4-------|---------5-2-R-4-|
A|---|-----------------|-----2-5---------|-----------------|-----5-2---------|
E|---|---2-2-2---2-2-2-|-2-3-------------|---2-2-2---2-2-2-|-3-2-------------|
         pm - |  pm - - - - - - |            pm - |  pm - - - - - - |

                                                       
                                                       1st ending - - - -\
__(e)                              e__(e)e e e e e e e__(e)e e q   e e e__
e|-----------------|-----------------|-----------------|-----------------|
B|-----------------|-----------------|-----------------|-----------------|
G|-----------------|-----------------|---------------9-|-9-9---7---7-----|
D|-4-------4-------|---------2-5-R-4-|-4-------4-----9-|-9-9-R-7---7-R-4-|
A|-----------------|-----2-5---------|---------------7-|-7-7---5---5-----|
E|---2-2-2---2-2-2-|-2-3-------------|---2-2-2---2-2---|-----------------|
     pm - |  pm - - - - - - |            pm - |  pm-|
                                                       
                                                       2nd ending - - - -\      
                                                     e__(e)e e q   e e e__
                                                  e|---|-----------------||
                                                  B|---|-----------------||
                                                  G|---|-------7---7---2-||
                                                  D|-2-|-2-2-R-7---7-R-2-||
                                                  A|-2-|-2-2---5---5---0-||
                                                  E|-0-|-0-0-------------||

-------------------------------------------------------------------------------
Right Channel: (same except for the endings)

                1st ending - - - - - - -\     2nd ending - - - - - - -\
                   e__(e)e e q   e e e___        e__(e)e e q   e e e___
                e|---|-----------------||     e|---|-----------------||
                B|---|-----------------||     B|---|-----------------||
                G|---|-----------------||     G|-9-|-9-9---7---7---2-||
                D|-5-|-5-5-R-4---4-R-4-||     D|-9-|-9-9-R-7---7-R-2-||
                A|---|-----------------||     A|-7-|-7-7---5---5---0-||
                E|---|-----------------||     E|---|-----------------||

 
===============================================================================
Riff 1b: (right channel harmony part)

Now we return to Riff 1, but in bars 5-6 and 9-10 (0:55 and 1:05, respectively)
the right channel guitar plays a harmony instead of that B power chord that is
normally played.

Right Channel Bar 5-6: (0:55)

   e__(e)e e e e e e e   e e e e e e e e__
e|---|-----------------|-----------------|
B|---|-----------------|-----------------|
G|---|-----------------|---------------7-| etc. from here it's the same
D|---|-----------------|-----------4---7-|      as before...
A|-4-|-4-5-5-5-5-5-5-5-|-5-5-4-5-7-----5-|
E|---|-----------------|-------------x---|
           pm-|  pm-|

Then repeat the same line for bars 9-10 at about 1:05.

===============================================================================
Riff 3

                                       1st ending - - - - - - - - - - - - \
   e__(e)e e h      e__(e)e e h      e__(e)e e h      e__(e)e e q   e e e__
e|---|----------------|----------------|----------------|-----------------|
B|---|----------------|----------------|----------------|-----------------|
G|---|--------------5-|-5-4-5----------|----------------|-----------------|
D|-7-|-7-5-7--------5-|-5-4-5-R------7-|-7-5-7--------2-|-2-2-2-5---5-5-7-|
A|-7-|-7-5-7-R------3-|-3-2-3--------7-|-7-5-7-R------2-|-2-2-2-5---5-5-7-|
E|-5-|-5-3-5----------|--------------5-|-5-3-5--------0-|-0-0-0-3---3-3-5-|


2nd ending (left channel)         2nd ending (right channel)
__(e)e e e e e e e__(h..)        __(e)e e e e e e e__(h..) 
e|-----------------|---------||   |-----------------|---------||
B|-----------------|---------||   |-----------------|---------||
G|-----------------|---------||   |-----------------|---------||
D|-7-5-7---------2-|-2-------||   |-7-5-7-R-------5-|-5-------||
A|-7-5-7-R-------2-|-2-------||   |-7-5-7-R-5-6-7---|---------||
E|-5-3-5---3-4-5-0-|-0-------||   |-5-3-5-----------|---------||

===============================================================================
Solo: 
      Ok, the rhythms here really have to be listened to - most of the bends
      are slow, but peak out on specific beats. Usually you're holding the
      original note for a bit before bending it.  I /really/ wish i was do-
      ing this in standard (staff) notation right now; TAB sucks sometimes - 
      but if you can read rhythm and/or can actually hear, you'll be ok.


   e___(h.)     e    e     W         e e e e e e e e   e e e e e e e e__
e|----|------------------|---------|-----------------|-----------------|
B|-10-|-10--b--(12)r(10)-|-7~~~----|-7-------------7-|-----------------|
G|----|------------------|---------|---9-8-6-9-8-----|---------------9-|
D|----|------------------|---------|-------------9---|-9-8-6-9-8-6-----|
A|----|------------------|---------|-----------------|-------------9---|
E|----|------------------|---------|-----------------|-----------------|


__(h)     e e e e____(h)      e e e e__(h)  e e e     e     e q    e e e e e__
e|----------------|-------------------|-------------------|-------------------|
B|----------------|-------------------|-------------------|----------------10-|
G|-9~~----9p8---9-|-b(11)-----9p8---9-|-9~~-9p8---11b(13)-|-R-11~~~9p8---9----|
D|------------9---|---------------9---|---------9---------|------------9------|
A|----------------|-------------------|-------------------|-------------------|
E|----------------|-------------------|-------------------|-------------------|


__(s)  s    e   e e  q   e e   e e e e e e e e   e e e h____(e)
e|---------------------------|-----------------|-----------------|
B|-10b(12)r(10)-8-10-8~------|-8---8---8-7-----|-8---8-10--b(12)-|
G|-----------------------9-7-|---9---9-----7-9-|---9-------------|
D|---------------------------|-----------------|-----------------|
A|---------------------------|-----------------|-----------------|
E|---------------------------|-----------------|-----------------|


       e    e   e q    q   e___(e)  e    q    q   s s e  s s e e q.  s s e
e|----------------10-b(12)-10-|-10b(12)r(10)------------|------------------|
B|-10b(12)r(10)-8-------------|---------------8---------|----8-R-8---------|
G|----------------------------|-------------------9p7---|7h9---------9p7---|
D|----------------------------|-----------------------9-|----------------9-|
A|----------------------------|-------------------------|------------------|
E|----------------------------|-------------------------|------------------|


    e  e  e q     q.           e    e   e  e   h
e|-----------------------|-------------------------|
B|-----------------------|-----------------15b(17)-|
G|-----12-R-14--b(16)----|-14b(16)r(14)-12---------|
D|-/14-------------------|-------------------------|
A|-----------------------|-------------------------|
E|-----------------------|-------------------------|

End harmony section - here's where the lead takes off.  Turn on your wah.

e|-------------------------|----------|
B|-------12-14-15-12-14-15-|-12-14-15-|
G|-12-14-------------------|--over----| ... and over
D|-------------------------|--and-----|
A|-------------------------|--over----|
E|-------------------------|----------|

   slow...            big bend...
e|------------------|----------------|----------|
B|-15...(b)...(17)--|-15b(19)-r-(15)-|----------|
G|------------------|----------------|--14~~~---|
D|------------------|----------------|----------|
A|------------------|----------------|----------|
E|------------------|----------------|----------|


e|------------|------------|--------------------||
B|------------|------------|--------------------||
G|------------|-5/7\5~-----|--------------------||
D|-7-5-7-~~~--|------------|-7-5-7---------5~~--||
A|------------|------------|---------5-6-7------||
E|------------|------------|--------------------||

-------------------------------------------------------------------------------
Solo Harmony Part:

The harmony for the solo is just the same line transposed up a perfect 5th.
Here it is written out if you need it.


   e___(h.)     e    e     W         e  e  e  e  e  e  e  e  
e|----|------------------|---------|-------------------------|
B|-17-|-17--b--(19)r(17)-|-14~~~---|-14-------------------14-|
G|----|------------------|---------|----16-15-13-16-15-------|
D|----|------------------|---------|-------------------16----|
A|----|------------------|---------|-------------------------|
E|----|------------------|---------|-------------------------|

   e  e  e  e  e  e  e e___(h)     e  e  e  e_____(h)      e  e  e  e____
e|------------------------|--------------------|-----------------------|
B|---------------------12-|-12~~---12p11----12-|-b(14)-----12p11----12-|
G|------------------------|--------------11----|-----------------11----|
D|-16-15-13-16-15-13------|--------------------|-----------------------|
A|-------------------16---|--------------------|-----------------------|
E|------------------------|--------------------|-----------------------|

__(h)     e  e  e      e     e q     e  e  e  e  e____
e|-------------------------|------------------------|
B|-12~~~--12p11----14b(16)-|-R-14~~~-------------17-|
G|--------------12---------|---------16p15----16----|
D|-------------------------|---------------16-------|
A|-------------------------|------------------------|
E|-------------------------|------------------------|

__(s)  s    e   e  e  q    e  e    e e e e e  e e  e    e e e  h____(e)
e|-------------------------------|--------------------|------------------|
B|-17b(19)r(17)-15-17-15~--------|-15--15--15-14------|-15--15-17--b(19)-|
G|-------------------------16-14-|---16--16-----14-16-|---16-------------|
D|-------------------------------|--------------------|------------------|
A|-------------------------------|--------------------|------------------|
E|-------------------------------|--------------------|------------------|

       e    e   e  q    q   e___(e)  e    q    q   s  s  e
e|-----------------17-b(19)-17-|-17b(19)r(17)---------------|
B|-17b(19)r(17)-15-------------|---------------15-----------|
G|-----------------------------|-------------------16p14----|
D|-----------------------------|-------------------------16-|
A|-----------------------------|----------------------------|
E|-----------------------------|----------------------------|

   s  s  e  e q.   s  s  e     e  e  e q     q.           e   e    e  e   h
e|--------------------------|----------------------|-----------------17b(19)-||
B|-------15-R-15------------|-----15-R-17--b(19)---|-17b(19)r(17)-15---------||
G|-14h16-----------16p14----|-/16------------------|-------------------------||
D|-----------------------16-|----------------------|-------------------------||
A|--------------------------|----------------------|-------------------------||
E|--------------------------|----------------------|-------------------------||


-------------------------------------------------------------------------------
Rhythm Guitar for Solo:  (palm mute all the single notes)


   e__(e)e  e e  e e  e e   e e  e e ...                           e e  e e___
e|---|--------------------|--------------------|-------|--------------------|
B|---|--------------------|--------------------|-------|--------------------|
G|---|--------------------|--------------------|----/--|--------------------|
D|-2-|-2-4----------------|--------------------|--o/o--|-----------4-6----7-|
A|-2-|-2-4----------------|--------------------|--/----|-----------4-6--R-7-|
E|-0-|-0-2--2-2--2-2--2-2-|-2-2--2-2--2-2--2-2-|-------|-2-2--2-2--2-4----5-|

__(e)e  e e  e e  e e ...                                      e e  e e___
e|--------------------|--------------------|-------|--------------------|
B|--------------------|--------------------|-------|--------------------|
G|--------------------|--------------------|----/--|-------------4----5-|
D|-7-7----------------|--------------------|--o/o--|-----------7-4----5-|
A|-7-7----------------|--------------------|--/----|-----------7-2--R-3-|
E|-5-5--5-5--5-5--5-5-|-5-5--5-5--5-5--5-5-|-------|-5-5--5-5--5--------|

__(e)e  e e  e e  e e ...                                      e e  e e___
e|--------------------|--------------------|-------|--------------------|
B|--------------------|--------------------|-------|--------------------|
G|-5-5----------------|--------------------|----/--|-----------5-7----9-|
D|-5-5----------------|--------------------|--o/o--|-----------5-7--R-9-|
A|-3-3--3-3--3-3--3-3-|-3-3--3-3--3-3--3-3-|--/----|-3-3--3-3--3-5----7-|
E|--------------------|--------------------|-------|--------------------|


__(e)e  e e  e e  e e__(e)e  e e  e e  e e__(e)e  e q   e  e e                   

e|--------------------|--------------------|-------------------|
B|--------------------|--------------------|-------------------|
G|-9-9-------9------7-|-7-9-------9------7-|-7-9----7---9----7-|
D|-9-9-------9------7-|-7-9-------9------7-|-7-9----7---9----7-|
A|-7-7--7-7--7-7--7-5-|-5-7--7-7--7-7--7-5-|-5-7--7-5---7--7-5-|
E|--------------------|--------------------|-------------------|


__(e)e  e q   e  e e  
e|-------------------||
B|-------------------||
G|-7-9----7---9------|| 
D|-7-9----7---9--R-7-||
A|-5-7--7-5---7----7-||
E|-----------------5-||<--Leads into Riff 3, which plays underneath the rest
                          of the solo

===============================================================================
Riff 4: (palm mute all single notes)

Riff 4 is just the rhythm guitar part from the solo.
The left channel guitar plays it exactly the same as before.
The right channel guitar plays the same riff up an octave (shown below).


   e__(e)e  e e  e e  e e   e e  e e ...                         e e  e e___
e|---|--------------------|--------------------|-----|--------------------|
B|---|--------------------|--------------------|-----|--------------------|
G|-4-|-4-6----------------|--------------------|---/-|-----------6-8----9-|
D|-2-|-2-4--4-4--4-4--4-4-|-4-4--4-4--4-4--4-4-|-o/o-|-4-4--4-4--4-6--R-7-|
A|---|--------------------|--------------------|-/---|--------------------|
E|---|--------------------|--------------------|-----|--------------------|

__(e)e  e e  e e...                                          e e  e e____
e|--------------------|--------------------|-----|---------------------|
B|--------------------|--------------------|-----|---------------------|
G|-9-9----------------|--------------------|---/-|-----------9-11---12-|
D|-7-7--7-7--7-7--7-7-|-7-7--7-7--7-7--7-7-|-o/o-|-7-7--7-7--7-9--R-10-|
A|--------------------|--------------------|-/---|---------------------|
E|--------------------|--------------------|-----|---------------------|

__(e) e   e  e   e  e...                                        e  e   e e____
e|----------------------------|-----------|-----|---------------------------|
B|----------------------------|-----------|-----|---------------------------|
G|-12-12----------------------|-----------|---/-|---------------12-14----16-|
D|-10-10--10-10--10-10--10-10-|-more-10's-|-o/o-|-10-10--10-10--10-12--R-14-|
A|----------------------------|-----------|-/---|---------------------------|
E|----------------------------|-----------|-----|---------------------------|

__(e) e   e  e   e  e   e  e___(e) e   e  e   e  e   e  e____
e|----------------------------|----------------------------|
B|----------------------------|----------------------------|
G|-16-16---------16--------14-|-14-16---------16--------14-|
D|-14-14--14-14--14-14--14-12-|-12-14--14-14--14-14--14-12-|
A|----------------------------|----------------------------|
E|----------------------------|----------------------------|

__(e) e   e  q    e   e  e___(e) e   e  q    e   e e_____
e|--------------------------|------------------------||
B|--------------------------|------------------------||
G|-14-16-----14---16-----14-|-14-16-----14---16------||
D|-12-14--14-12---14--14-12-|-12-14--14-12---14--R---||
A|--------------------------|------------------------||
E|--------------------------|----------------------5-||<--Leads to Harmonized
                                                                      Riff

===============================================================================
Harmonized Riff:

Left Channel:  (palm mute to taste - it's messy enough w/o all those
               "pm"s in there...)

To summarize, we're just going to do the 1st riff 2X and then do it 2X again,
this time up a perfect 5th.  Next we play the fancier version 2X (in the 
original key) and then 2X more up a 5th, but with the different ending.


   e__(e)e e e e e q___(h..)    e__(e)e e e e e e e__(e)e e q   e e e__
e|---|----------------|-----------|-----------------|-----------------|
B|---|----------------|-----------|-----------------|-----------------|
G|---|----------------|-----------|-----------------|-----------------|
D|---|-----------5----|-----------|-----------5-----|-----------------|
A|---|-----5-6-7---7--|-7---------|-----5-6-7---7-5-|-5-5-R-3---3-R---|
E|-5-|-5-8------------|---------5-|-5-8-------------|---------------5-|

__(e)e e e e e q___(h..)    e__(e)e e e e e e e__(e)e e q   e e e__
e|----------------|-----------|-----------------|-----------------|
B|----------------|-----------|-----------------|-----------------|
G|----------------|-----------|-----------------|-----------------|
D|-----------5----|-----------|-----------5-----|-----------------|
A|-----5-6-7---7--|-7---------|-----5-6-7---7-5-|-5-5-R-3---3-R-7-|
E|-5-8------------|---------5-|-5-8-------------|-----------------|

__(e)e  e e e e q___(h..)   e__(e)e  e e e e e e__(e)e e q   e e e__
e|-----------------|----------|------------------|-----------------|
B|-----------------|----------|------------------|-----------------|
G|------------7----|----------|------------7-----|-----------------|
D|------7-8-9---9--|-9--------|------7-8-9---9-7-|-7-7-R-5---5-R---|
A|-7-10------------|--------7-|-7-10-------------|---------------7-|
E|-----------------|----------|------------------|-----------------|

__(e)e  e e e e q___(h..)   e__(e)e  e e e e e e__(e)e e q   e e e__
e|-----------------|----------|------------------|-----------------|
B|-----------------|----------|------------------|-----------------|
G|------------7----|----------|------------7-----|-----------------|
D|------7-8-9---9--|-9--------|------7-8-9---9-7-|-7-7-R-5---5-R---|
A|-7-10------------|--------7-|-7-10-------------|-----------------|
E|-----------------|----------|------------------|---------------5-|


Fancier version:
__(e)e e e e e e e   e e e e e e e e__(e)e e e e e e e   e e e e e e e e__
e|-----------------|-----------------|-----------------|-----------------|
B|-----------------|-----------------|-----------------|-----------------|
G|-----------------|-------5---------|-----------------|-------5---------|
D|-----------5---5-|-7-5-7---7-5-7---|-----------5---5-|-7-5-7---7-5-7---|
A|-----5-6-7---7---|-----------------|-----5-6-7---7---|---------------7-|
E|-5-8-------------|---------------5-|-5-8-------------|-----------------|


__(e)e  e e e e e e   e e e e e e e e__(e)e  e e e e e e__(e)e e q   e e e__
e|------------------|-----------------|------------------|-----------------||
B|------------------|-------8---------|------------------|-----------------||
G|------------7---7-|-9-7-9---9-7-9---|------------7-----|-----------------||
D|------7-8-9---9---|-----------------|------7-8-9---9-7-|-7-7-R-5---5-R-4-||<
A|-7-10-------------|---------------7-|-7-10-------------|-----------------|| |
E|------------------|-----------------|------------------|-----------------|| |
                                                                              |
                                                       leads back to riff 2 --|
-------------------------------------------------------------------------------
Right Channel:

The right channel is a little less predictable - have a look.


   e__(e)e e e e e q___(h..)    e__(e)e e e e e e e__(e)e e q   e e e__
e|---|----------------|-----------|-----------------|-----------------|
B|---|----------------|-----------|-----------------|-----------------|
G|---|----------------|-----------|-----------------|-----------------|
D|---|-----------5----|-----------|-----------5-----|-----------------|
A|---|-----5-6-7---7--|-7---------|-----5-6-7---7-9-|-9-9-R-7---7-R---|
E|-5-|-5-8------------|---------5-|-5-8-------------|---------------8-|

__(e)e e e e e q___(h..)    e__(e)e e e e e e e__(e)e e q   e e e__
e|----------------|-----------|-----------------|-----------------|
B|----------------|-----------|-----------------|-----------------|
G|----------------|-----------|-----------------|-----------------|
D|-----------5----|-----------|-----------5-----|-----------------|
A|-----5-6-7---7--|-7---------|-----5-6-7---7-5-|-5-5-R-3---3-R---|
E|-8-5------------|---------5-|-5-8-------------|---------------5-|

__(e)e e e e e q___(h..)    e__(e)e e e e e e e__(e)e e q   e e e__
e|----------------|-----------|-----------------|-----------------|
B|----------------|-----------|-----------------|-----------------|
G|----------------|-----------|-----------------|-----------------|
D|-----------5----|-----------|-----------5-----|-----------------|
A|-----5-6-7---7--|-7---------|-----5-6-7---7-5-|-5-5-R-3---3-R---|
E|-5-8------------|---------5-|-5-8-------------|---------------5-|

__(e)e e e e e q___(h..)    e__(e)e e e e e e e__(e)e e q   e e e__
e|----------------|-----------|-----------------|-----------------|
B|----------------|-----------|-----------------|-----------------|
G|----------------|-----------|-----------------|-----------------|
D|-----------5----|-----------|-----------5-----|-----------------|
A|-----5-6-7---7--|-7---------|-----5-6-7---7-5-|-5-5-R-3---3-R---|
E|-5-8------------|---------5-|-5-8-------------|---------------5-|


Fancier version:
__(e)e e e e e e e   e e e e e e e e__(e)e  e e e e e e   e  e e  e  e e e  e__
e|-----------------|-----------------|------------------|---------8-----------|
B|-----------------|-----------------|------------8---8-|-10-8-10---10-8-10---|
G|-----------------|-------5---------|------7-8-9---9---|---------------------|
D|-----------5---5-|-7-5-7---7-5-7-7-|-7-10-------------|---------------------|
A|-----5-6-7---7---|-----------------|------------------|---------------------|
E|-5-8-------------|-----------------|------------------|-------------------5-|

__(e)e e e e e e e   e e e e e e e e__(e)e e e e e e e__(e)e e q   e e e___
e|-----------------|-----------------|-----------------|-----------------||
B|-----------------|-----------------|-----------------|-----------------||
G|-----------------|-------5---------|-----------------|-----------------||
D|-----------5---5-|-7-5-7---7-5-7---|-----------5-----|---------------4-||<
A|-----5-6-7---7---|-----------------|-----5-6-7---7-9-|-9-9-R-7---7-R---|| \
E|-5-8-------------|---------------5-|-5-8-------------|-----------------||  |
                                                                             |
                                                      leads back to riff 2 --|
===============================================================================
Then back to Riff 2 - the only difference being when they hang on that low E 
                      power chord in the 2nd ending.

===============================================================================
Outro:

Left channel:

   q    q  q  e e  e e   e e  h.       q  q  e e  e e   e e  h.
e|----|----------------|-------------|----------------|-------------|
B|----|----------------|-------------|----------------|-------------|
G|----|----------------|-------------|----------------|-------------|
D|----|----------------|-------------|----------------|-------------|
A|-7\-|-0--2--2-2--R-2-|-0h2--5------|-0--2--2-2--R-2-|-0h2--5------|
E|----|----------------|-------------|----------------|-------------|
             pm     pm                      pm     pm


   q  q  e e  e e   e e  q  q  e e   e e  e q   e  e e__(e)e  e q   e q
e|----------------|----------------|-------------------|-----------------||
B|----------------|----------------|-------------------|-----------------||
G|----------------|---------4------|-------------------|--------9---9-9--||
D|----------------|---------4------|--------5---5----2-|-2-2----9---9-9--||
A|-0--2--2-2--R-2-|-0h2--5--2--2-2-|-0h2--0-5---5----2-|-2-2----7---7-7--||
E|----------------|----------------|--------3---3--X-0-|-0-0--X----------||
        pm     pm              pm-|      pm          ^
                                                     |
Then repeat and end on the low E - - - - - - - - - - |

-------------------------------------------------------------------------------
Right Channel


   q    q  q  e e  e e   e e  h.       q  q  e e  e e   e e  h.
e|----|----------------|-------------|----------------|-------------|
B|----|----------------|-------------|----------------|-------------|
G|----|----------------|-------------|----------------|-------------|
D|----|----------------|------4~-----|----------------|------4~-----|
A|-7\-|-4--5--5-5--R-5-|-4h5---------|-4--5--5-5--R-5-|-4h5---------|
E|----|----------------|-------------|----------------|-------------|
             pm     pm                      pm     pm


   q  q  e e  e e   e e  q  q  e e   e e  e q   e  e e__(e)e  e q   e q
e|----------------|----------------|-------------------|-----------------||
B|----------------|----------------|-------------------|-----------------||
G|----------------|----------------|-------------------|--------9---9-9--||
D|----------------|----------------|--------5---5----2-|-2-2----9---9-9--||
A|-4--5--5-5--R-5-|-4h5-/9--5--5-5-|-0h2--0-5---5----2-|-2-2----7---7-7--||
E|----------------|----------------|--------3---3--X-0-|-0-0--X----------||
        pm     pm              pm-|      pm

Then when the right channel repeats it doubles the left channel (shown above).

===============================================================================
     I love 3OB and I've wanted to do this tune for quite a while - they aren't
exactly known for their solos, but this one is pretty damn cool.  Incidentally,
for performance purposes you might try playing the solo as a single guitar
through a harmonizer or Whammy pedal set to harmonize up a perfect 5th.  That
/might/ be what's actually on the recording - it's so tight and crisp that I
can't quite tell...

     Let me know if you have any issues with my rhythm notation, or spot any 
typos; questions, comments, etc are always welcome.

Cheers,

-Old Rasputin


       Email Old Rasputin:               Myspace Old Rasputin:
   
   einsteinonthebeach40@gmail.com      www.myspace.com/oldrasputin
   
================================================================================

| pm palm mute
| b  bend
| r  release bend
| PH pinch harmonic
| /  slide up
| \  slide down
| h  hammer-on
| p  pull-off
| ~  vibrato
| x  Mute note
===============================================================================
comments
We did not receive enough feedback on this tab! Please rate:
print report bad tab
1 2 3 4 5
I want to post or [tab]
guest
You may want to rate the tab now too:
select rating
Please do not post tabs as comments. Select "correction" instead!