Oops, an error
Loading. Please wait.

Axes Of Evil Bass Tab

ver1
ver1

Whole song

Interactive

More versions @911Tabs.com
1,029 views 1 this week
no commentswrite comment
1 2 3 4 5
worth learning
x 1
Autoscroll
+/-
esc
set tempo
stop
Contributor
Hey! There's an official Ultimate Guitar app which is ideal
for learning songs when you're away from computer. Get the app
WARNING: You are trying to view
                                    content from Ultimate-Guitar.com
                                    in an unauthorized application,
                                    which is prohibited.

                                    Please use an official Ultimate
                                    Guitar Tabs application for iPhone,
                                    iPad or Android to access legitimate
                                    chords, guitar, bass, and drum tabs
                                    from Ultimate-Guitar.com database.

                                    Type "ultimate guitar tabs" in Apple
                                    App Store's or Android Market's
                                    search to find the application.
                                 Axes of Evil                                   

Transcribed by Fr33kbass3572

                                                               3 Inches of Blood
Bass



     W                   W                   W                 
G||-------------------|-------------------|-------------------|
D||-------------------|-------------------|-------------------|
A||-------------------|-------------------|-------------------|
E||--0----------------|--L----------------|--0----------------|


  W                   W                   W                   W                 
-------------------|-------------------|-------------------|-------------------|
-------------------|-------------------|-------------------|-------------------|
-------------------|-------------------|-------------------|-------------------|
--L----------------|--0----------------|--L----------------|--0----------------|


  W                   W                   E  E  E  E  E  E  E  E   
-------------------|-------------------|--------------------------|
-------------------|-------------------|--------------------------|
-------------------|-------------------|--------------------------|
--L----------------|--L----------------|--5--5--5--5--5--5--5--5--|


  E  E  E  E  E  E  E  E     E  E  E  E  E  E  E  E   
--------------------------|--------------------------|
--------------------------|--------------------------|
--------------------------|--------------------------|
--5--5--5--5--5--5--5--5--|--1--1--1--1--1--1--1--1--|


  E  E  E  E  E  E  E  E     E  E  E  E  E  E  E  E   
--------------------------|--------------------------|
--------------------------|--------------------------|
--3--3--3--3--3--3--3--3--|--------------------------|
--------------------------|--5--5--5--5--5--5--5--5--|


  E  E  E  E  E  E  E  E     E  E  E  E  E  E  E  E   
--------------------------|--------------------------|
--------------------------|--------------------------|
--------------------------|--------------------------|
--5--5--5--5--5--5--5--5--|--1--1--1--1--1--1--1--1--|


  E  E  E  E  E  E  E  E     E  E  E  E  E  E  E  E   
--------------------------|--------------------------|
--------------------------|--------------------------|
--3--3--3--3--3--3--3--3--|--------------------------|
--------------------------|--5--5--5--5--5--5--5--5--|


  E  E  E  E  E  E  E  E     E  E  E  E  E  E  E  E   
--------------------------|--------------------------|
--------------------------|--------------------------|
--------------------------|--------------------------|
--5--5--5--5--5--5--5--5--|--1--1--1--1--1--1--1--1--|


  E  E  E  E  E  E  E  E     E  E  E  E  E  E  E  E   
--------------------------|--------------------------|
--------------------------|--------------------------|
--3--3--3--3--3--3--3--3--|--------------------------|
--------------------------|--5--5--5--5--5--5--5--5--|


  E  E  E  E  E  E  E  E     E  E  E  E  E  E  E  E     W                  
--------------------------|--------------------------|--------------------|
--------------------------|--------------------------|--------------------|
--------------------------|--------------------------|--3~----------------|
--5--5--5--5--5--5--5--5--|--1--1--1--1--1--1--1--1--|--------------------|


  E  E  E  E  E  E  E  E     E  E  E  E  E  E  E  E   
--------------------------|--------------------------|
--------------------------|--------------------------|
--------------------------|--------------------------|
--5--5--5--5--5--5--5--5--|--5--5--5--5--5--5--5--5--|


  E  E  E  E  E  E  E  E     E  E  E  E  E  E  E  E   
--------------------------|--------------------------|
--------------------------|--------------------------|
--------------------------|--3--3--3--3--3--3--3--3--|
--1--1--1--1--1--1--1--1--|--------------------------|


  E  E  E  E  E  E  E  E     E  E  E  E  E  E  E  E   
--------------------------|--------------------------|
--------------------------|--------------------------|
--------------------------|--------------------------|
--5--5--5--5--5--5--5--5--|--5--5--5--5--5--5--5--5--|


  E  E  E  E  E  E  E  E     E  E  E  E  E  E  E  E   
--------------------------|--------------------------|
--------------------------|--------------------------|
--------------------------|--3--3--3--3--3--3--3--3--|
--1--1--1--1--1--1--1--1--|--------------------------|


  |----3----|    |----3----|       |----3----|                 
  Q    Q    Q    Q    Q    Q       Q    Q    Q    Q     Q      
--------------------------------|-----------------------------|
--------------------------------|-----------------------------|
--0---------0----2---------2----|--3----0----3----5~----2~----|
-------1--------------3---------|-----------------------------|


  |----3----|                                                        
  Q    Q    Q    Q    Q       Q    E  E     E  E  E  E  E  E  E  E   
---------------------------|-------------|--------------------------|
---------------------------|-------------|--------------------------|
--0----2----2--------------|-------------|--------------------------|
-----------------3----5----|--L----L--1--|--L--1--1--1--1--1--1--3--|


  E  E  E  E  E  E  E  E     E  E  E  E  E  E  E  E   
--------------------------|--------------------------|
--------------------------|--------------------------|
--------------------------|--------------------------|
--L--3--3--3--3--3--3--5--|--L--5--5--5--5--5--5--5--|


  E  E  E  E  E  E  E  E     E  E  E  E  E  E  E  E   
--------------------------|--------------------------|
--------------------------|--------------------------|
--------------------------|--------------------------|
--L--5--5--5--5--5--5--1--|--L--1--1--1--1--1--1--3--|


  E  E  E  E  E  E  E  E     E  E  E  E  E  E  E  E   
--------------------------|--------------------------|
--------------------------|--------------------------|
--------------------------|--------------------------|
--L--3--3--3--3--3--3--5--|--L--5--5--5--5--5--5--5--|


  E  E  E  E  E  E  E  E     E  E  E  E  E  E  E  E   
--------------------------|--------------------------|
--------------------------|--------------------------|
--------------------------|--------------------------|
--L--5--5--5--5--5--5--1--|--L--1--1--1--1--1--1--3--|


  E  E  E  E  E  E  E  E     E  E  E  E  E  E  E  E   
--------------------------|--------------------------|
--------------------------|--------------------------|
--------------------------|--------------------------|
--L--3--3--3--3--3--3--7--|--L--7--7--7--7--7--7--7--|


  E  E  E  E  E  E  E  E     E  E  E  E  E  E  E  E   
--------------------------|--------------------------|
--------------------------|--------------------------|
--------------------------|--------------------------|
--L--7--7--7--7--7--7--3--|--L--3--3--3--3--3--3--5--|


  E  E  E  E  E  E  E  E     E  E  E  E  E  E  E  E   
--------------------------|--------------------------|
--------------------------|--------------------------|
--------------------------|--------------------------|
--L--5--5--5--5--5--5--7--|--L--7--7--7--7--7--7--7--|


  E  E  E  E  E  E  E  E     E  E  E  E  E  E  E  E   
--------------------------|--------------------------|
--------------------------|--------------------------|
--------------------------|--------------------------|
--L--7--7--7--7--7--7--3--|--L--3--3--3--3--3--3--3--|


  E  E  E  E  E  E  E  E     E  E  E  E  E  E  E  E   
--------------------------|--------------------------|
--------------------------|--------------------------|
--------------------------|--------------------------|
--1--0--1--0--1--0--5--5--|--L--5--5--5--5--5--5--5--|


  E  E  E  E  E   E  E  E     E  E  E  E  E  E  E  E   
---------------------------|--------------------------|
---------------------------|--------------------------|
--7--8-----8-----10--------|--------------------------|
------------------------8--|--L--8--8--8--8--8--8--8--|


  E  E  E  E  E  E  E  E     E  E  E  E  E  E  E  E   
--------------------------|--------------------------|
--------------------------|--------------------------|
--8--7-----7--------------|--------------------------|
-----------------8-----5--|--L--5--5--5--5--5--5--5--|


  E  E  E  E  E   E  E  E     E  E  E  E  E  E  E  E   
---------------------------|--------------------------|
---------------------------|--------------------------|
--7--8-----8-----10--------|--------------------------|
------------------------8--|--L--8--8--8--8--8--8--8--|


  E  E  E  E  E  E  E  E     E  E  E  E  E  E  E  E   
--------------------------|--------------------------|
--------------------------|--------------------------|
--8--7-----7--------------|--------------------------|
-----------------8-----5--|--L--5--5--5--5--5--5--5--|


  E  E  E  E  E   E  E  E     E  E  E  E  E  E  E  E   
---------------------------|--------------------------|
---------------------------|--------------------------|
--7--8-----8-----10--------|--------------------------|
------------------------8--|--L--8--8--8--8--8--8--8--|


  E  E  E  E  E  E  E  E     E  E  E  E  E  E  E  E   
--------------------------|--------------------------|
--------------------------|--------------------------|
--8--7-----7--------------|--------------------------|
-----------------8-----5--|--L--5--5--5--5--5--5--5--|


  E  E  E  E  E   E  E  E     E  E  E  E  E  E  E  E   
---------------------------|--------------------------|
---------------------------|--------------------------|
--7--8-----8-----10--------|--------------------------|
------------------------8--|--L--8--8--8--8--8--8--8--|


  E  E  E  E  E  E  E  E     H.           E  E     H.           E  E   
--------------------------|---------------------|---------------------|
--------------------------|---------------------|---------------------|
--8--7-----7--------------|------------------3--|--L------------L--5--|
-----------------8-----5--|--L------------L-----|---------------------|


  H.           E  E     E  E  E  E  E  E  E  E     H.           E  E   
---------------------|--------------------------|---------------------|
---------------------|--------------------------|---------------------|
--L------------L--5--|--7--8-----3-----3--------|------------------3--|
---------------------|-----------------------5--|--L------------L-----|


  H.           E  E     H.           E  E     E  E  E  E  E  E  E  E   
---------------------|---------------------|--------------------------|
---------------------|---------------------|--------------------------|
--L------------L--5--|--L------------L--5--|--7--8-----3-----3--------|
---------------------|---------------------|-----------------------5--|


  H.           E  E     H.           E  E     H.           E  E   
---------------------|---------------------|---------------------|
---------------------|---------------------|---------------------|
------------------3--|--L------------L--5--|--L------------L--5--|
--L------------L-----|---------------------|---------------------|


  E  E  E  E  E  E  E  E     H.           E  E     H.           E  E   
--------------------------|---------------------|---------------------|
--------------------------|---------------------|---------------------|
--7--8-----3-----3--------|------------------3--|--L------------L--5--|
-----------------------5--|--L------------L-----|---------------------|


  H.           E  E     E  E  E  E  E  E  E  E     Q    E  E  E  E  E  E   
---------------------|--------------------------|-------------------------|
---------------------|--------------------------|-------------------------|
--L------------L--5--|--7--8-----3-----3--------|-------------------------|
---------------------|-----------------------5--|--L----5--5--5--5--5--5--|


  Q    E  E  E  E  E  E     Q    E  E  E  E  E  E     Q    E  E  E  E  E  E   
-------------------------|-------------------------|-------------------------|
-------------------------|-------------------------|-------------------------|
-------------------------|--3----3--3--3--3--3--3--|--2----2--2--2--2--2--2--|
--5----5--5--5--5--5--5--|-------------------------|-------------------------|


  Q    E  E  E  E  E  E     Q    E  E  E  E  E  E     Q    E  E  E  E  E  E   
-------------------------|-------------------------|-------------------------|
-------------------------|-------------------------|-------------------------|
-------------------------|-------------------------|--3----3--3--3--3--3--3--|
--5----5--5--5--5--5--5--|--5----5--5--5--5--5--5--|-------------------------|


  Q    E  E  E  E  E  E     Q    E  E  E  E  E  E     Q    E  E  E  E  E  E   
-------------------------|-------------------------|-------------------------|
-------------------------|-------------------------|-------------------------|
--2----2--2--2--2--2--2--|-------------------------|-------------------------|
-------------------------|--5----5--5--5--5--5--5--|--5----5--5--5--5--5--5--|


  Q    E  E  E  E  E  E     Q    E  E  E  E  E  E     Q    E  E  E  E  E  E   
-------------------------|-------------------------|-------------------------|
-------------------------|-------------------------|-------------------------|
--3----3--3--3--3--3--3--|--2----2--2--2--2--2--2--|-------------------------|
-------------------------|-------------------------|--5----5--5--5--5--5--5--|


  Q    E  E  E  E  E  E     Q    E  E  E  E  E  E     Q    E  E  E  E  E  E   
-------------------------|-------------------------|-------------------------|
-------------------------|-------------------------|-------------------------|
-------------------------|--3----3--3--3--3--3--3--|--2----2--2--2--2--2--2--|
--5----5--5--5--5--5--5--|-------------------------|-------------------------|


  E  E  E  E  E  E  E  E     E  E  E  E  E  E  E  E   
--------------------------|--------------------------|
--------------------------|--------------------------|
--------------------------|--------------------------|
--7--7--7--7--7--7--7--7--|--7--7--7--7--7--7--7--7--|


  E  E  E  E  E  E  E  E     E  E  E  E  E  E  E  E   
--------------------------|--------------------------|
--------------------------|--------------------------|
--5--5--5--5--5--5--5--5--|--4--4--4--4--4--4--4--4--|
--------------------------|--------------------------|


  E  E  E  E  E  E  E  E     E  E  E  E  E  E  E  E   
--------------------------|--------------------------|
--------------------------|--------------------------|
--------------------------|--------------------------|
--7--7--7--7--7--7--7--7--|--7--7--7--7--7--7--7--7--|


  E  E  E  E  E  E  E  E     E  E  E  E  E  E  E  E   
--------------------------|--------------------------|
--------------------------|--------------------------|
--5--5--5--5--5--5--5--5--|--4--4--4--4--4--4--4--4--|
--------------------------|--------------------------|


  E  E  E  E  E  E  E  E     E  E  E  E  E  E  E  E   
--------------------------|--------------------------|
--------------------------|--------------------------|
--------------------------|--------------------------|
--7--7--7--7--7--7--7--7--|--7--7--7--7--7--7--7--7--|


  E  E  E  E  E  E  E  E     E  E  E  E  E  E  E  E   
--------------------------|--------------------------|
--------------------------|--------------------------|
--5--5--5--5--5--5--5--5--|--4--4--4--4--4--4--4--4--|
--------------------------|--------------------------|


  E  E  E  E  E  E  E  E     E  E  E  E  E  E  E  E   
--------------------------|--------------------------|
--------------------------|--------------------------|
--------------------------|--------------------------|
--7--7--7--7--7--7--7--7--|--7--7--7--7--7--7--7--7--|


  E  E  E  E  E  E  E  E     E  E  E  E  E  E  E  E     Q    H        E  E   
--------------------------|--------------------------|----------------------|
--------------------------|--------------------------|----------------------|
--5--5--5--5--5--5--5--5--|--4--4--4--4--4--4--4--4--|----------------------|
--------------------------|--------------------------|--5----------------5--|


  E  H.           E     E  H.           E     E  H.           E   
---------------------|---------------------|---------------------|
---------------------|---------------------|---------------------|
---------------------|---------------------|---------------------|
--L---------------1--|--L---------------3--|--L---------------5--|


  E  E  E  E  E  E  E  E     E  E  E  E  E  E  E  E   
--------------------------|--------------------------|
--------------------------|--------------------------|
--------------------------|--------------------------|
--L--5--5--5--5--5--5--5--|--L--5--5--5--5--5--5--1--|


  E  E  E  E  E  E  E  E     E  E  E  E  E  E  E  E   
--------------------------|--------------------------|
--------------------------|--------------------------|
--------------------------|--------------------------|
--L--1--1--1--1--1--1--3--|--L--3--3--3--3--3--3--5--|


  E  E  E  E  E  E  E  E     E  E  E  E  E  E  E  E   
--------------------------|--------------------------|
--------------------------|--------------------------|
--------------------------|--------------------------|
--L--5--5--5--5--5--5--5--|--L--5--5--5--5--5--5--1--|


  E  E  E  E  E  E  E  E     E  E  E  E  E  E  E  E   
--------------------------|--------------------------|
--------------------------|--------------------------|
--------------------------|--------------------------|
--L--1--1--1--1--1--1--3--|--L--3--3--3--3--3--3--7--|


  E  E  E  E  E  E  E  E     E  E  E  E  E  E  E  E   
--------------------------|--------------------------|
--------------------------|--------------------------|
--------------------------|--------------------------|
--L--7--7--7--7--7--7--7--|--L--7--7--7--7--7--7--3--|


  E  E  E  E  E  E  E  E     E  E  E  E  E  E  E  E   
--------------------------|--------------------------|
--------------------------|--------------------------|
--------------------------|--------------------------|
--L--3--3--3--3--3--3--5--|--L--5--5--5--5--5--5--7--|


  E  E  E  E  E  E  E  E     E  E  E  E  E  E  E  E   
--------------------------|--------------------------|
--------------------------|--------------------------|
--------------------------|--------------------------|
--L--7--7--7--7--7--7--7--|--L--7--7--7--7--7--7--3--|


  E  E  E  E  E  E  E  E     E  E  E  E  E  E  E  E   
--------------------------|--------------------------|
--------------------------|--------------------------|
--------------------------|--------------------------|
--L--3--3--3--3--3--3--3--|--1--0--1--0--1--0--5--5--|


  E  E  E  E  E  E  E  E     E  E  E  E  E  E  E  E   
--------------------------|--------------------------|
--------------------------|--------------------------|
--------------------------|--------------------------|
--L--5--5--5--5--5--3--5--|--L--5--5--5--5--5--0--1--|


  E  E  E  E  E  E  E  E     E  E  E  E  E  E  E  E   
--------------------------|--------------------------|
--------------------------|--------------------------|
--------------------------|--------------------------|
--L--1--1--1--1--1--3--1--|--L--1--1--1--1--1--3--5--|


  E  E  E  E  E  E  E  E     E  E  E  E  E  E  E  E   
--------------------------|--------------------------|
--------------------------|--------------------------|
--------------------------|--------------------------|
--L--5--5--5--5--5--3--5--|--L--5--5--5--5--5--0--1--|


  E  E  E  E  E  E  E  E     E  E  E  E  E  E  E  E   
--------------------------|--------------------------|
--------------------------|--------------------------|
--------------------------|--------------------------|
--L--1--1--1--1--1--3--1--|--L--1--1--1--1--1--3--5--|


  E  E  E  E  E  E  E  E     E  E  E  E  E  E  E  E   
--------------------------|--------------------------|
--------------------------|--------------------------|
--------------------------|--------------------------|
--L--5--5--5--5--5--3--5--|--L--5--5--5--5--5--0--1--|


  E  E  E  E  E  E  E  E     E  E  E  E  E  E  E  E   
--------------------------|--------------------------|
--------------------------|--------------------------|
--------------------------|--------------------------|
--L--1--1--1--1--1--3--1--|--L--1--1--1--1--1--3--5--|


  E  E  E  E  E  E  E  E     E  E  E  E  E  E  E  E   
--------------------------|--------------------------|
--------------------------|--------------------------|
--------------------------|--------------------------|
--L--5--5--5--5--5--3--5--|--L--5--5--5--5--5--0--1--|


  E  E  E  E  E  E  E  E     E  E  E  E  E  E  E  E     H.           E  E   
--------------------------|--------------------------|---------------------|
--------------------------|--------------------------|---------------------|
--------------------------|--------------------------|------------------3--|
--L--1--1--1--1--1--3--1--|--L--1--1--1--1--1--3--5--|--L------------L-----|


  H.           E  E     H.           E  E     E  E  E  E  E  E  E  E   
---------------------|---------------------|--------------------------|
---------------------|---------------------|--------------------------|
--L------------L--5--|--L------------L--5--|--7--8-----3-----3--------|
---------------------|---------------------|-----------------------5--|


  H.           E  E     H.           E  E     H.           E  E   
---------------------|---------------------|---------------------|
---------------------|---------------------|---------------------|
------------------3--|--L------------L--5--|--L------------L--5--|
--L------------L-----|---------------------|---------------------|


  E  E  E  E  E  E  E  E     H.           E  E     H.           E  E   
--------------------------|---------------------|---------------------|
--------------------------|---------------------|---------------------|
--7--8-----3-----3--------|------------------3--|--L------------L--5--|
-----------------------5--|--L------------L-----|---------------------|


  H.           E  E     E  E  E  E  E  E  E  E     H.           E  E   
---------------------|--------------------------|---------------------|
---------------------|--------------------------|---------------------|
--L------------L--5--|--7--8-----3-----3--------|------------------3--|
---------------------|-----------------------5--|--L------------L-----|


  H.           E  E     H.           E  E     E  E  E  E  E  E  E  E   
---------------------|---------------------|--------------------------|
---------------------|---------------------|--------------------------|
--L------------L--5--|--L------------L--5--|--7--8-----3-----3--------|
---------------------|---------------------|-----------------------5--|


  E  E  E  E  E  E  E  E     E  E  E  E  E  E  E  E   
--------------------------|--------------------------|
--------------------------|--------------------------|
--------------------------|--------------------------|
--L--5--5--5--5--5--5--5--|--L--5--5--5--5--5--5--1--|


  E  E  E  E  E  E  E  E     E  E  E  E  E  E  E  E   
--------------------------|--------------------------|
--------------------------|--------------------------|
--------------------------|--------------------------|
--L--1--1--1--1--1--1--3--|--L--3--3--3--3--3--3--5--|


  E  E  E  E  E  E  E  E     E  E  E  E  E  E  E  E   
--------------------------|--------------------------|
--------------------------|--------------------------|
--------------------------|--------------------------|
--L--5--5--5--5--5--5--5--|--L--5--5--5--5--5--5--1--|


  E  E  E  E  E  E  E  E     E  E  E  E  E  E  E  E   
--------------------------|--------------------------|
--------------------------|--------------------------|
--------------------------|--------------------------|
--L--1--1--1--1--1--1--3--|--L--3--3--3--3--3--3--5--|


  E  E  E  E  E  E  E  E     E  E  E  E  E  E  E  E   
--------------------------|--------------------------|
--------------------------|--------------------------|
--------------------------|--------------------------|
--L--5--5--5--5--5--5--5--|--L--5--5--5--5--5--5--1--|


  E  E  E  E  E  E  E  E     E  E  E  E  E  E  E  E   
--------------------------|--------------------------|
--------------------------|--------------------------|
--------------------------|--------------------------|
--L--1--1--1--1--1--1--3--|--L--3--3--3--3--3--3--5--|


  E  E  E  E  E  E  E  E     E  E  E  E  E  E  E  E   
--------------------------|--------------------------|
--------------------------|--------------------------|
--------------------------|--------------------------|
--L--5--5--5--5--5--5--5--|--L--5--5--5--5--5--5--1--|


  E  E  E  E  E  E  E  E     E  E  E  E  E  E  E  E   
--------------------------|--------------------------|
--------------------------|--------------------------|
--------------------------|--------------------------|
--L--1--1--1--1--1--1--3--|--L--3--3--3--3--3--3--L--|


  |----3----|    |----3----|       |----3----|                 
  Q    Q    Q    Q    Q    Q       Q    Q    Q    Q     Q      
--------------------------------|-----------------------------|
--------------------------------|-----------------------------|
--0---------0----2---------2----|--3----0----3----5~----2~----|
-------1--------------3---------|-----------------------------|


  |----3----|                                                        
  Q    Q    Q    Q    Q       Q    E  E     E  E  E  E  E  E  E  E   
---------------------------|-------------|--------------------------|
---------------------------|-------------|--------------------------|
--0----2----2--------------|-------------|--------------------------|
-----------------3----5----|--L----L--1--|--L--1--1--1--1--1--1--3--|


  E  E  E  E  E  E  E  E     E  E  E  E  E  E  E  E   
--------------------------|--------------------------|
--------------------------|--------------------------|
--------------------------|--------------------------|
--L--3--3--3--3--3--3--5--|--L--5--5--5--5--5--5--5--|


  E  E  E  E  E  E  E  E     E  E  E  E  E  E  E  E   
--------------------------|--------------------------|
--------------------------|--------------------------|
--------------------------|--------------------------|
--L--5--5--5--5--5--5--1--|--L--1--1--1--1--1--1--3--|


  E  E  E  E  E  E  E  E     E  E  E  E  E  E  E  E   
--------------------------|--------------------------|
--------------------------|--------------------------|
--------------------------|--------------------------|
--L--3--3--3--3--3--3--5--|--L--5--5--5--5--5--5--5--|


  E  E  E  E  E  E  E  E     E  E  E  E  E  E  E  E   
--------------------------|--------------------------|
--------------------------|--------------------------|
--------------------------|--------------------------|
--L--5--5--5--5--5--5--1--|--L--1--1--1--1--1--1--3--|


  E  E  E  E  E  E  E  E     E  E  E  E  E  E  E  E   
--------------------------|--------------------------|
--------------------------|--------------------------|
--------------------------|--------------------------|
--L--3--3--3--3--3--3--7--|--L--7--7--7--7--7--7--7--|


  E  E  E  E  E  E  E  E     E  E  E  E  E  E  E  E   
--------------------------|--------------------------|
--------------------------|--------------------------|
--------------------------|--------------------------|
--L--7--7--7--7--7--7--3--|--L--3--3--3--3--3--3--5--|


  E  E  E  E  E  E  E  E     E  E  E  E  E  E  E  E   
--------------------------|--------------------------|
--------------------------|--------------------------|
--------------------------|--------------------------|
--L--5--5--5--5--5--5--7--|--L--7--7--7--7--7--7--7--|


  E  E  E  E  E  E  E  E     E  E  E  E  E  E  E  E   
--------------------------|--------------------------|
--------------------------|--------------------------|
--------------------------|--------------------------|
--L--7--7--7--7--7--7--3--|--L--3--3--3--3--3--3--3--|


  E  E  E  E  E  E  E  E     E  E  E  E  E  E  E  E   
--------------------------|--------------------------|
--------------------------|--------------------------|
--------------------------|--------------------------|
--L--5--5--5--5--5--5--5--|--L--5--5--5--5--5--5--5--|


                                                 |----3----|                
  E  E  E  E  E  E  E  E     W                   Q    Q    Q    Q    Q      
--------------------------|-------------------|---------------------------||
--------------------------|-------------------|---------------------------||
--------------------------|-------------------|--0----2----2--------------||
--L--5--5--5--5--5--5--1--|--L----------------|-----------------3----5----||




Duration Legend
---------------
W - whole
H - half
Q - quarter
E - 8th
S - 16th
T - 32nd
X - 64th
. - note dotted
|-n-|  - n-tuplets


Tablature Legend
----------------
L - tied note
x - dead note
g - grace note
(n) - ghost note
> - accentuded note
NH - natural harmonic
AH - artificial harmonic
TH - tapped harmonic
SH - semi harmonic
PH - pitch harmonic
h - hammer on
p - pull off
b - bend
br - bendRelease
pb - preBend
pbr - preBendRelease
brb - bendReleaseBend
\n/ - tremolo bar dip
\n - tremolo bar dive
-/n - tremolo bar Release up
/n\ - tremolo bar inverted dip
/n - tremolo bar return
-\n - tremolo bar Release down
S - shift slide
s - legato slide
/ -  slide into from below or out of upwards
\ -  slide into from above or out of downwards
~ - vibrato
W - wide vibrato
tr - trill
TP - tremolo picking
T - tapping
S - slap
P - pop
< - fade in
^ - brush up
v - brush down
comments
We did not receive enough feedback on this tab! Please rate:
print report bad tab
1 2 3 4 5
I want to post or [tab]
guest
You may want to rate the tab now too:
select rating
Please do not post tabs as comments. Select "correction" instead!