Oops, an error
Loading. Please wait.

Battles And Brotherhood Tab

ver1
ver1

Whole song

Interactive

More versions @911Tabs.com
3,841 views 9 this week
2 commentsread comments
1 2 3 4 5
excellent!
x 2
Autoscroll
+/-
esc
set tempo
stop
Contributor
Difficulty
intermediate
Hey! There's an official Ultimate Guitar app which is ideal
for learning songs when you're away from computer. Get the app
WARNING: You are trying to view
                                    content from Ultimate-Guitar.com
                                    in an unauthorized application,
                                    which is prohibited.

                                    Please use an official Ultimate
                                    Guitar Tabs application for iPhone,
                                    iPad or Android to access legitimate
                                    chords, guitar, bass, and drum tabs
                                    from Ultimate-Guitar.com database.

                                    Type "ultimate guitar tabs" in Apple
                                    App Store's or Android Market's
                                    search to find the application.
                        Battles and Brotherhood                             


                                                           3 Inches of Blood
Lead



        PM PM PM PM PM PM    PM PM    PM PM  
     E  S  S  S  S  S  S  E  S  S  E  S  S   
E||-----------------------------------------|
B||-----------------------------------------|
G||--------------------------------7--------|
D||--9--------------------9--------5--------|
A||--7--------------------7-----------------|
E||-----0--0--0--0--0--0-----0--0-----0--0--|


          PM PM PM PM PM PM PM PM        
  S  S E  S  S  S  S  S  S  S  S  E  E   
----------------------------------------|
----------------------------------------|
--7s-9-------------------------------7--|
--5s-7-9--------------------------7--5--|
-------7--------------------------5-----|
----------0--0--0--0--0--0--0--0--------|


     PM PM PM PM PM PM    PM PM    PM PM  
  E  S  S  S  S  S  S  E  S  S  E  S  S   
-----------------------------------------|
-----------------------------------------|
--------------------------------7--------|
--9--------------------9--------5--------|
--7--------------------7-----------------|
-----0--0--0--0--0--0-----0--0-----0--0--|


          PM PM PM PM PM PM PM PM        
  S  S E  S  S  S  S  S  S  S  S  E  E   
----------------------------------------|
----------------------------------------|
--7s-9----------------------------7-----|
--5s-7-9--------------------------5--7--|
-------7-----------------------------5--|
----------0--0--0--0--0--0--0--0--------|


     PM PM PM PM PM PM    PM PM    PM PM  
  E  S  S  S  S  S  S  E  S  S  E  S  S   
-----------------------------------------|
-----------------------------------------|
--------------------------------7--------|
--9--------------------9--------5--------|
--7--------------------7-----------------|
-----0--0--0--0--0--0-----0--0-----0--0--|


          PM PM PM PM PM PM PM PM        
  S  S E  S  S  S  S  S  S  S  S  E  E   
----------------------------------------|
----------------------------------------|
--7s-9-------------------------------7--|
--5s-7-9--------------------------7--5--|
-------7--------------------------5-----|
----------0--0--0--0--0--0--0--0--------|


     PM PM PM PM PM PM    PM PM    PM PM  
  E  S  S  S  S  S  S  E  S  S  E  S  S   
-----------------------------------------|
-----------------------------------------|
--------------------------------7--------|
--9--------------------9--------5--------|
--7--------------------7-----------------|
-----0--0--0--0--0--0-----0--0-----0--0--|


          PM PM PM PM PM PM PM PM                   PM PM PM PM PM PM PM PM  
  S  S E  S  S  S  S  S  S  S  S  E  E     H        S  S  S  S  S  S  S  S   
----------------------------------------|-----------------------------------|
----------------------------------------|-----------------------------------|
--7s-9----------------------------7-----|-----------------------------------|
--5s-7-9--------------------------5--7--|--2--------------------------------|
-------7-----------------------------5--|--0--------5--3--2-----3--2--------|
----------0--0--0--0--0--0--0--0--------|--------------------5--------5--3--|


           PM PM PM PM                                  
  H        S  S  S  S  T  T  S E     H        H         
----------------------------------|--------------------|
----------------------------------|--------------------|
----------------------------------|--7-----------------|
--2-------------------------------|--5--------7--------|
--0--------5--3--2-----2h-3p-2----|-----------5--------|
--------------------5----------3--|--------------------|


     PM PM    PM PM    PM PM    PM PM  
  E  S  S  E  S  S  E  S  S  E  S  S   
--------------------------------------|
--------------------------------------|
--------------------------------------|
--7--------7--------7--------7--------|
--5--5--5--5--5--5--8--8--8--8--8--8--|
--------------------------------------|


     PM PM PM PM PM PM    PM PM    PM PM  
  E  S  S  S  S  S  S  E  S  S  E  S  S   
-----------------------------------------|
-----------------------------------------|
--------------------------------7--------|
--9--------------------9--------5--------|
--7--------------------7-----------------|
-----0--0--0--0--0--0-----0--0-----0--0--|


          PM PM PM PM PM PM PM PM        
  S  S E  S  S  S  S  S  S  S  S  E  E   
----------------------------------------|
----------------------------------------|
--7s-9-------------------------------7--|
--5s-7-9--------------------------7--5--|
-------7--------------------------5-----|
----------0--0--0--0--0--0--0--0--------|


     PM PM PM PM PM PM    PM PM    PM PM  
  E  S  S  S  S  S  S  E  S  S  E  S  S   
-----------------------------------------|
-----------------------------------------|
--------------------------------7--------|
--9--------------------9--------5--------|
--7--------------------7-----------------|
-----0--0--0--0--0--0-----0--0-----0--0--|


          PM PM PM PM PM PM PM PM        
  S  S E  S  S  S  S  S  S  S  S  E  E   
----------------------------------------|
----------------------------------------|
--7s-9----------------------------7-----|
--5s-7-9--------------------------5--7--|
-------7-----------------------------5--|
----------0--0--0--0--0--0--0--0--------|


     PM PM PM PM PM PM    PM PM    PM PM  
  E  S  S  S  S  S  S  E  S  S  E  S  S   
-----------------------------------------|
-----------------------------------------|
--------------------------------7--------|
--9--------------------9--------5--------|
--7--------------------7-----------------|
-----0--0--0--0--0--0-----0--0-----0--0--|


          PM PM PM PM PM PM PM PM        
  S  S E  S  S  S  S  S  S  S  S  E  E   
----------------------------------------|
----------------------------------------|
--7s-9-------------------------------7--|
--5s-7-9--------------------------7--5--|
-------7--------------------------5-----|
----------0--0--0--0--0--0--0--0--------|


     PM PM PM PM PM PM    PM PM    PM PM  
  E  S  S  S  S  S  S  E  S  S  E  S  S   
-----------------------------------------|
-----------------------------------------|
--------------------------------7--------|
--9--------------------9--------5--------|
--7--------------------7-----------------|
-----0--0--0--0--0--0-----0--0-----0--0--|


          PM PM PM PM PM PM PM PM                          PM  
  S  S E  S  S  S  S  S  S  S  S  E  E     H.           E  E   
----------------------------------------|---------------------|
----------------------------------------|---------------------|
--7s-9----------------------------7-----|---------------------|
--5s-7-9--------------------------5--7--|--7------------L-----|
-------7-----------------------------5--|--7------------L--5--|
----------0--0--0--0--0--0--0--0--------|--5------------L--3--|


  PM                                                             
  E  H.           E     H        H           H        H          
---------------------|--------------------|---------------------|
---------------------|--------------------|---------------------|
---------------------|--------------------|-----------9\--------|
-----7------------L--|--5--------5--------|--7--------7\--------|
--5--7------------L--|--3--------3--------|--7------------------|
--3--5------------L--|--------------------|--5------------------|


                  PM    PM                                       
  H.           E  E     E  H.           E     H        H         
---------------------|---------------------|--------------------|
---------------------|---------------------|--------------------|
---------------------|---------------------|--------------------|
--7------------L-----|-----7------------L--|--5--------5--------|
--7------------L--5--|--5--7------------L--|--3--------3--------|
--5------------L--3--|--3--5------------L--|--------------------|


                                   PM PM PM PM PM     PM  
  H         H             Q    E.  S  S  S  S  S  E.  S   
----------------------|----------------------------------|
----------------------|----------------------------------|
--2--------/4~--------|--/2----2---2--5--4--2--4--2---2--|
----------------------|----------------------------------|
----------------------|----------------------------------|
----------------------|----------------------------------|


  PM PM PM PM                                       PM PM PM PM PM     PM  
  S  S  S  S  T  T  S E  E.   S S S E      Q    E.  S  S  S  S  S  E.  S   
----------------------------------------|---------------------------------|
----------------------------------------|--------------5------------------|
--4--2----------------------------------|--5----5---5-----7--5--7--5---5--|
--------5--2--5h-7p-5-----------5-9-5~--|---------------------------------|
----------------------7--7~---7---------|---------------------------------|
----------------------------------------|---------------------------------|


  PM PM PM                              
  S  S  S  S T  T  S E  E.   S S S E    
---------------------------------------|
---------------------------------------|
--7--5--4----4h-5p-4-----------4-7-4~--|
-----------5---------5--5~---5---------|
---------------------------------------|
---------------------------------------|


     PM PM PM PM PM PM    PM PM    PM PM  
  E  S  S  S  S  S  S  E  S  S  E  S  S   
-----------------------------------------|
-----------------------------------------|
--------------------------------7--------|
--9--------------------9--------5--------|
--7--------------------7-----------------|
-----0--0--0--0--0--0-----0--0-----0--0--|


          PM PM PM PM PM PM PM PM        
  S  S E  S  S  S  S  S  S  S  S  E  E   
----------------------------------------|
----------------------------------------|
--7s-9-------------------------------7--|
--5s-7-9--------------------------7--5--|
-------7--------------------------5-----|
----------0--0--0--0--0--0--0--0--------|


     PM PM PM PM PM PM    PM PM    PM PM  
  E  S  S  S  S  S  S  E  S  S  E  S  S   
-----------------------------------------|
-----------------------------------------|
--------------------------------7--------|
--9--------------------9--------5--------|
--7--------------------7-----------------|
-----0--0--0--0--0--0-----0--0-----0--0--|


          PM PM PM PM PM PM PM PM        
  S  S E  S  S  S  S  S  S  S  S  E  E   
----------------------------------------|
----------------------------------------|
--7s-9----------------------------7-----|
--5s-7-9--------------------------5--7--|
-------7-----------------------------5--|
----------0--0--0--0--0--0--0--0--------|


     PM PM PM PM PM PM    PM PM    PM PM  
  E  S  S  S  S  S  S  E  S  S  E  S  S   
-----------------------------------------|
-----------------------------------------|
--------------------------------7--------|
--9--------------------9--------5--------|
--7--------------------7-----------------|
-----0--0--0--0--0--0-----0--0-----0--0--|


          PM PM PM PM PM PM PM PM        
  S  S E  S  S  S  S  S  S  S  S  E  E   
----------------------------------------|
----------------------------------------|
--7s-9-------------------------------7--|
--5s-7-9--------------------------7--5--|
-------7--------------------------5-----|
----------0--0--0--0--0--0--0--0--------|


     PM PM PM PM PM PM    PM PM    PM PM  
  E  S  S  S  S  S  S  E  S  S  E  S  S   
-----------------------------------------|
-----------------------------------------|
--------------------------------7--------|
--9--------------------9--------5--------|
--7--------------------7-----------------|
-----0--0--0--0--0--0-----0--0-----0--0--|


          PM PM PM PM PM PM PM PM                   PM PM PM PM PM PM PM PM  
  S  S E  S  S  S  S  S  S  S  S  E  E     H        S  S  S  S  S  S  S  S   
----------------------------------------|-----------------------------------|
----------------------------------------|-----------------------------------|
--7s-9----------------------------7-----|-----------------------------------|
--5s-7-9--------------------------5--7--|--2--------------------------------|
-------7-----------------------------5--|--0--------5--3--2-----3--2--------|
----------0--0--0--0--0--0--0--0--------|--------------------5--------5--3--|


           PM PM PM PM                                  
  H        S  S  S  S  T  T  S E     H        H         
----------------------------------|--------------------|
----------------------------------|--------------------|
----------------------------------|--7-----------------|
--2-------------------------------|--5--------7--------|
--0--------5--3--2-----2h-3p-2----|-----------5--------|
--------------------5----------3--|--------------------|


     PM PM    PM PM    PM PM    PM PM                    PM  
  E  S  S  E  S  S  E  S  S  E  S  S     H.           E  E   
--------------------------------------|---------------------|
--------------------------------------|---------------------|
--------------------------------------|---------------------|
--7--------7--------7--------7--------|--7------------L-----|
--5--5--5--5--5--5--8--8--8--8--8--8--|--7------------L--5--|
--------------------------------------|--5------------L--3--|


  PM                                                             
  E  H.           E     H        H           H        H          
---------------------|--------------------|---------------------|
---------------------|--------------------|---------------------|
---------------------|--------------------|-----------9\--------|
-----7------------L--|--5--------5--------|--7--------7\--------|
--5--7------------L--|--3--------3--------|--7------------------|
--3--5------------L--|--------------------|--5------------------|


                  PM    PM                                       
  H.           E  E     E  H.           E     H        H         
---------------------|---------------------|--------------------|
---------------------|---------------------|--------------------|
---------------------|---------------------|--------------------|
--7------------L-----|-----7------------L--|--5--------5--------|
--7------------L--5--|--5--7------------L--|--3--------3--------|
--5------------L--3--|--3--5------------L--|--------------------|


                                   PM PM            
  H         H            Q    Q    S  S   E   Q     
----------------------|----------------------------|
----------------------|----------------------------|
--2--------/4~--------|----------------------------|
----------------------|--7----7--------------------|
----------------------|--7----7----------10--10----|
----------------------|--5----5----5--5---8---8----|


  PM PM         PM PM    PM PM                 PM PM          
  S  S  E  Q    S  S  E  S  S  E     Q    Q    S  S  E  Q     
----------------------------------|--------------------------|
----------------------------------|--------------------------|
-------------------------------5--|--------------------------|
----------------------5--------5--|--7----7------------------|
--------7--7----------5--3--3--3--|--7----7----------3--3----|
--5--5--5--5----3--3--3-----------|--5----5----1--1--1--1----|


  PM PM        PM PM PM PM PM PM PM PM PM              PM PM            
  S  S  E  E.  S  S  S  S  S  S  S  S  S     Q    Q    S  S   E   Q     
------------------------------------------|----------------------------|
------------------------------------------|----------------------------|
------------------------------------------|----------------------------|
------------------------------------------|--7----7--------------------|
--------6--6------------------------------|--7----7----------10--10----|
--4--4--4--4---1--4--3--1--0--1--3--4--3--|--5----5----5--5---8---8----|


  PM PM         PM PM    PM PM                 PM PM          
  S  S  E  Q    S  S  E  S  S  E     Q    Q    S  S  E  Q     
----------------------------------|--------------------------|
----------------------------------|--------------------------|
-------------------------------5--|--------------------------|
----------------------5--------5--|--7----7------------------|
--------7--7----------5--3--3--3--|--7----7----------3--3----|
--5--5--5--5----3--3--3-----------|--5----5----1--1--1--1----|


  PM PM        PM PM PM PM PM PM PM PM PM             PM PM PM PM PM      PM  
  S  S  E  E.  S  S  S  S  S  S  S  S  S     Q    E.  S  S  S  S  S  E.   S   
------------------------------------------|----------------------------------|
------------------------------------------|----------------------------------|
------------------------------------------|--------------7--5-----5----------|
------------------------------------------|--8----8---8--------8-----8~---8--|
--------6--6------------------------------|----------------------------------|
--4--4--4--4---1--4--3--1--0--1--3--4--3--|----------------------------------|


  PM PM PM PM                 PM                     PM PM PM PM PM      PM  
  S  S  S  S  T  T  S E  E.   S  S S E      Q    E.  S  S  S  S  S  E.   S   
-----------------------------------------|----------------------------------|
-----------------------------------------|----------------------------------|
--5--------------------------------5-----|--------------7--5-----5----------|
-----8--7-----7h-8p-7------------7---7~--|--8----8---8--------8-----8~---8--|
-----------8----------8--8~---8----------|----------------------------------|
-----------------------------------------|----------------------------------|


  PM PM PM PM                 PM                     PM PM PM PM PM     PM  
  S  S  S  S  T  T  S E  E.   S  S S E      Q    E.  S  S  S  S  S  E.  S   
-----------------------------------------|---------------------------------|
-----------------------------------------|--------------5------------------|
--5--------------------------------5-----|--5----5---5-----7--5--7--5---5--|
-----8--7-----7h-8p-7------------7---7~--|---------------------------------|
-----------8----------8--8~---8----------|---------------------------------|
-----------------------------------------|---------------------------------|


  PM PM PM                                         PM PM PM PM PM     PM  
  S  S  S  S T  T  S E  E.   S S S E      Q    E.  S  S  S  S  S  E.  S   
---------------------------------------|---------------------------------|
---------------------------------------|--------------5------------------|
--7--5--4----4h-5p-4-----------4-7-4~--|--5----5---5-----7--5--7--5---5--|
-----------5---------5--5~---5---------|---------------------------------|
---------------------------------------|---------------------------------|
---------------------------------------|---------------------------------|


  PM PM PM                                          PM PM            
  S  S  S  S T  T  S E  E.   S S S E      Q    Q    S  S   E   Q     
---------------------------------------|----------------------------|
---------------------------------------|----------------------------|
--7--5--4----4h-5p-4-----------4-7-4~--|----------------------------|
-----------5---------5--5~---5---------|--7----7--------------------|
---------------------------------------|--7----7----------10--10----|
---------------------------------------|--5----5----5--5---8---8----|


  PM PM         PM PM    PM PM                 PM PM          
  S  S  E  Q    S  S  E  S  S  E     Q    Q    S  S  E  Q     
----------------------------------|--------------------------|
----------------------------------|--------------------------|
-------------------------------5--|--------------------------|
----------------------5--------5--|--7----7------------------|
--------7--7----------5--3--3--3--|--7----7----------3--3----|
--5--5--5--5----3--3--3-----------|--5----5----1--1--1--1----|


  PM PM        PM PM PM PM PM PM PM PM PM              PM PM            
  S  S  E  E.  S  S  S  S  S  S  S  S  S     Q    Q    S  S   E   Q     
------------------------------------------|----------------------------|
------------------------------------------|----------------------------|
------------------------------------------|----------------------------|
------------------------------------------|--7----7--------------------|
--------6--6------------------------------|--7----7----------10--10----|
--4--4--4--4---1--4--3--1--0--1--3--4--3--|--5----5----5--5---8---8----|


  PM PM         PM PM    PM PM                 PM PM          
  S  S  E  Q    S  S  E  S  S  E     Q    Q    S  S  E  Q     
----------------------------------|--------------------------|
----------------------------------|--------------------------|
-------------------------------5--|--------------------------|
----------------------5--------5--|--7----7------------------|
--------7--7----------5--3--3--3--|--7----7----------3--3----|
--5--5--5--5----3--3--3-----------|--5----5----1--1--1--1----|


  PM PM        PM PM PM PM PM PM PM PM PM  
  S  S  E  E.  S  S  S  S  S  S  S  S  S   
------------------------------------------|
------------------------------------------|
------------------------------------------|
------------------------------------------|
--------6--6------------------------------|
--4--4--4--4---1--4--3--1--0--1--3--4--3--|


  PM PM PM PM PM PM PM PM PM PM PM PM PM PM PM PM  
  S  S  S  S  S  S  S  S  S  S  S  S  S  S  S  S   
--------------------------------------------------|
--------------------------------------------------|
--------------------------------------------------|
--------------------------------------------------|
--------------------------------------------------|
--4--3--1--0--1--3--4--3--4--3--1--0--1--3--4--3--|


    PM PM PM PM PM PM PM PM PM PM PM PM PM PM PM  
  S S  S  S  S  S  S  S  S  S  S  S  S  S  S  S   
-------------------------------------------------|
-------------------------------------------------|
-------------------------------------------------|
-------------------------------------------------|
--2----------------------------------------------|
--0-0--0--0--0--0--0--0--0--0--0--0--0--0--0--0--|


  PM PM PM PM                                                        
  S  S  S  S  S S S S S S S S S S S S    S E  Q.      S S S S S S S  
--------------------------------------|-----------------------------|
--------------------------------------|-----------------------------|
--------------------------------------|---------------------5-7-5---|
----------------------2-2-2-2-2-2-2-2-|--5-7--L~------L-5-7-------7-|
--2--2--2--2--2-2-2-2-2-2-2-2-2-2-2-2-|-----------------------------|
--0--0--0--0--0-0-0-0-0-0-0-0-0-0-0-0-|-----------------------------|


             |----3----|                                  
  Q.      E  Q    Q    Q        E  S E  S Q.      E   E   
-----------------------------|---------------------------|
----------5--5----5----L~----|--6----6----6~------6s--1--|
--5~-------------------------|---------------------------|
-----------------------------|---------------------------|
-----------------------------|---------------------------|
-----------------------------|---------------------------|


  E  S E  S H         E     S S  S S S  S H         E   
-------------------------|-----------------------------|
--1----1----3~--------3--|-----------------------------|
-------------------------|--5------5-------------------|
-------------------------|----7p-5---7p-5-7~--------7--|
-------------------------|-----------------------------|
-------------------------|-----------------------------|


  S S S S S S Q.      E    E      E  S  E  S  H          E    
------------------------------|------------------------------|
--5-----5---------------------|------------------------------|
----5-----5---5~------5s--10--|--10----10----10~--------10~--|
------7-----7-----------------|------------------------------|
------------------------------|------------------------------|
------------------------------|------------------------------|


   S  S  S  S  S S  S S  S S  S  S  S   S  S   S  
-------------------------------------------------|
--10---------------------------------------------|
-----12-10-12-10-9-10-9----9---------------------|
------------------------12---12----10h-12-10h-12-|
--------------------------------12---------------|
-------------------------------------------------|


            PM PM         PM PM            PM PM         PM PM  
   E.   E.  S  S  E.  E.  S  S     E.  E.  S  S  E.  E.  S  S   
--------------------------------|------------------------------|
--------------------------------|------------------------------|
--------------------------------|------------------------------|
--14\---------------------------|--2-------------5---7---------|
--------2---------5---2---------|--0---2---------3---5---5--5--|
--------0---0--0--3---0---0--0--|------0---0--0----------------|


  E  S E  S Q.     Q        E  S  E  S Q.     Q     
------------------------|--------------------------|
------------------------|--------------------------|
------------------------|--10----10----7------7----|
--7----7----7------7----|--10----10----7------7----|
--7----7----7------7----|---8-----8----5------5----|
--5----5----5------5----|--------------------------|


          PM PM         PM PM            PM PM         PM PM  
  E.  E.  S  S  E.  E.  S  S     E.  E.  S  S  E.  E.  S  S   
------------------------------|------------------------------|
------------------------------|------------------------------|
------------------------------|------------------------------|
------------------------------|--2-------------5---7---------|
--2---2---------5---2---------|--0---2---------3---5---5--5--|
--0---0---0--0--3---0---0--0--|------0---0--0----------------|


  E  S E  S Q.     Q        E  S  E  S Q.     Q     
------------------------|--------------------------|
------------------------|--------------------------|
------------------------|--10----10----7------7----|
--7----7----7------7----|--10----10----7------7----|
--7----7----7------7----|---8-----8----5------5----|
--5----5----5------5----|--------------------------|


   S S  S  S  S  S  S  S S  S S  S S E.    
--10---10---------------------------------|
----------13-12-13-12-10-9------10---9~---|
---------------------------10-9-----------|
------------------------------------------|
------------------------------------------|
------------------------------------------|


   S S  S  S  S  S  S  S S  S S  E  S E    
--10---10---------------------------------|
----------13-12-13-12-10-9------10--9-----|
---------------------------10-9-------9~--|
------------------------------------------|
------------------------------------------|
------------------------------------------|


   S S  S  S  S  S  S  S S  S S  S S E.       S  S  S E  E.   S S S E  E.    
--10---10---------------------------------|--10p-8-10-----------------------|
----------13-12-13-12-10-9------10---9~---|-----------8--8~---8-------------|
---------------------------10-9-----------|---------------------9-7-9--9~---|
------------------------------------------|---------------------------------|
------------------------------------------|---------------------------------|
------------------------------------------|---------------------------------|


  PM PM PM       PM PM PM       PM PM PM PM  
  S  S  S  E   S S  S  S  E   S S  S  S  S   
--------------------------------------------|
--------------------------------------------|
--------------------------7~--7-------------|
-----------5~--5-9--7--9--------5-----------|
--7--5--7--------------------------7--5--7--|
--------------------------------------------|


  T  T  S S S S S S E  E  E   E.    
-----------------------------------|
-----------------------------------|
--------------------------4--/7~---|
--4h-5p-4-----5---7-5--5-----------|
----------5-7---7------------------|
-----------------------------------|


  T   T  S S E  S T   T  S S E  S T   T  S S S  
-----------------------------------------------|
--8h-10p-8---8--8-8h-10p-8---8--8-8h-10p-8---8-|
-----------9---------------9---------------9---|
-----------------------------------------------|
-----------------------------------------------|
-----------------------------------------------|


   |-----3-----|      |-----3-----|      |-----3-----|                
   T   T   S   S   S  T   T   S   S   S  T   T   S   S  Q      Q      
---------------------------------------------------------------------|
--10h-12h-15p-12p-10-10h-12h-15p-12p-10-10h-12h-15p-12-15b----15b----|
---------------------------------------------------------------------|
---------------------------------------------------------------------|
---------------------------------------------------------------------|
---------------------------------------------------------------------|


                                                        PM PM          
   Q     H.               W                   Q    Q    S  S  E  Q     
-----------------------|-------------------|--------------------------|
---Lb----L~------------|--L----------------|--------------------------|
-----------------------|-------------------|--------------------------|
-----------------------|-------------------|--7----7------------------|
-----------------------|-------------------|--7----7----------3--3----|
-----------------------|-------------------|--5----5----1--1--1--1----|


  PM PM        PM PM PM PM PM PM PM PM PM              PM PM            
  S  S  E  E.  S  S  S  S  S  S  S  S  S     Q    Q    S  S   E   Q     
------------------------------------------|----------------------------|
------------------------------------------|----------------------------|
------------------------------------------|----------------------------|
------------------------------------------|--7----7--------------------|
--------6--6------------------------------|--7----7----------10--10----|
--4--4--4--4---1--4--3--1--0--1--3--4--3--|--5----5----5--5---8---8----|


  PM PM         PM PM    PM PM                 PM PM          
  S  S  E  Q    S  S  E  S  S  E     Q    Q    S  S  E  Q     
----------------------------------|--------------------------|
----------------------------------|--------------------------|
-------------------------------5--|--------------------------|
----------------------5--------5--|--7----7------------------|
--------7--7----------5--3--3--3--|--7----7----------3--3----|
--5--5--5--5----3--3--3-----------|--5----5----1--1--1--1----|


  PM PM        PM PM PM PM PM PM PM PM PM  
  S  S  E  E.  S  S  S  S  S  S  S  S  S   
------------------------------------------|
------------------------------------------|
------------------------------------------|
------------------------------------------|
--------6--6------------------------------|
--4--4--4--4---1--4--3--1--0--1--3--4--3--|


  PM PM PM PM PM PM PM PM                     
  S  S  S  S  S  S  S  S   W                  
--------------------------13~----------------|
---------------------------------------------|
---------------------------------------------|
---------------------------------------------|
---------------------------------------------|
--4--3--1--0--1--3--4--3---------------------|


     PM PM PM PM PM PM    PM PM    PM PM  
  E  S  S  S  S  S  S  E  S  S  E  S  S   
-----------------------------------------|
-----------------------------------------|
--------------------------------7--------|
--9--------------------9--------5--------|
--7--------------------7-----------------|
-----0--0--0--0--0--0-----0--0-----0--0--|


          PM PM PM PM PM PM PM PM        
  S  S E  S  S  S  S  S  S  S  S  E  E   
----------------------------------------|
----------------------------------------|
--7s-9-------------------------------7--|
--5s-7-9--------------------------7--5--|
-------7--------------------------5-----|
----------0--0--0--0--0--0--0--0--------|


     PM PM PM PM PM PM    PM PM    PM PM  
  E  S  S  S  S  S  S  E  S  S  E  S  S   
-----------------------------------------|
-----------------------------------------|
--------------------------------7--------|
--9--------------------9--------5--------|
--7--------------------7-----------------|
-----0--0--0--0--0--0-----0--0-----0--0--|


          PM PM PM PM PM PM PM PM        
  S  S E  S  S  S  S  S  S  S  S  E  E   
----------------------------------------|
----------------------------------------|
--7s-9----------------------------7-----|
--5s-7-9--------------------------5--7--|
-------7-----------------------------5--|
----------0--0--0--0--0--0--0--0--------|


     PM PM PM PM PM PM    PM PM    PM PM  
  E  S  S  S  S  S  S  E  S  S  E  S  S   
-----------------------------------------|
-----------------------------------------|
--------------------------------7--------|
--9--------------------9--------5--------|
--7--------------------7-----------------|
-----0--0--0--0--0--0-----0--0-----0--0--|


          PM PM PM PM PM PM PM PM        
  S  S E  S  S  S  S  S  S  S  S  E  E   
----------------------------------------|
----------------------------------------|
--7s-9-------------------------------7--|
--5s-7-9--------------------------7--5--|
-------7--------------------------5-----|
----------0--0--0--0--0--0--0--0--------|


     PM PM PM PM PM PM    PM PM    PM PM  
  E  S  S  S  S  S  S  E  S  S  E  S  S   
-----------------------------------------|
-----------------------------------------|
--------------------------------7--------|
--9--------------------9--------5--------|
--7--------------------7-----------------|
-----0--0--0--0--0--0-----0--0-----0--0--|


          PM PM PM PM PM PM PM PM                          PM  
  S  S E  S  S  S  S  S  S  S  S  E  E     H.           E  E   
----------------------------------------|---------------------|
----------------------------------------|---------------------|
--7s-9----------------------------7-----|---------------------|
--5s-7-9--------------------------5--7--|--7------------L-----|
-------7-----------------------------5--|--7------------L--5--|
----------0--0--0--0--0--0--0--0--------|--5------------L--3--|


  PM                                                             
  E  H.           E     H        H           H        H          
---------------------|--------------------|---------------------|
---------------------|--------------------|---------------------|
---------------------|--------------------|-----------9\--------|
-----7------------L--|--5--------5--------|--7--------7\--------|
--5--7------------L--|--3--------3--------|--7------------------|
--3--5------------L--|--------------------|--5------------------|


                  PM    PM                                       
  H.           E  E     E  H.           E     H        H         
---------------------|---------------------|--------------------|
---------------------|---------------------|--------------------|
---------------------|---------------------|--------------------|
--7------------L-----|-----7------------L--|--5--------5--------|
--7------------L--5--|--5--7------------L--|--3--------3--------|
--5------------L--3--|--3--5------------L--|--------------------|


  H         H            W                   W                 
----------------------|-------------------|-------------------|
----------------------|-------------------|-------------------|
--2--------/4~--------|--L----------------|--L----------------|
----------------------|-------------------|-------------------|
----------------------|-------------------|-------------------|
----------------------|-------------------|-------------------|


  W                 
-------------------|
-------------------|
-------------------|
-------------------|
-------------------|
-------------------|


    PM PM      PM PM PM PM PM PM PM PM PM PM PM PM PM PM PM  
  S S  S  E  S T  T  S  T  T  S  T  T  S  T  T  S  T  T  S   
------------------------------------------------------------|
------------------------------------------------------------|
------------------------------------------------------------|
--9-------9--9----------------------------------------------|
--7-------7--7----------------------------------------------|
----0--0-------0--0--0--0--0--0--0--0--0--0--0--0--0--0--0--|


    PM PM      PM PM PM PM PM PM PM PM PM PM PM PM PM PM PM  
  S S  S  E  S T  T  S  T  T  S  T  T  S  T  T  S  T  T  S   
------------------------------------------------------------|
------------------------------------------------------------|
------------------------------------------------------------|
--9-------9--9----------------------------------------------|
--7-------7--7----------------------------------------------|
----0--0-------0--0--0--0--0--0--0--0--0--0--0--0--0--0--0--|


    PM PM      PM PM PM PM PM PM PM PM PM PM PM PM PM PM PM  
  S S  S  E  S T  T  S  T  T  S  T  T  S  T  T  S  T  T  S   
------------------------------------------------------------|
------------------------------------------------------------|
------------------------------------------------------------|
------------------------------------------------------------|
--8-------8--8----------------------------------------------|
--6-0--0--6--6-0--0--0--0--0--0--0--0--0--0--0--0--0--0--0--|


    PM PM      PM PM PM PM PM PM PM PM PM PM PM PM PM PM PM  
  S S  S  E  S T  T  S  T  T  S  T  T  S  T  T  S  T  T  S   
------------------------------------------------------------|
------------------------------------------------------------|
------------------------------------------------------------|
------------------------------------------------------------|
--8-------8--8----------------------------------------------|
--6-0--0--6--6-0--0--0--0--0--0--0--0--0--0--0--0--0--0--0--|


    PM PM      PM PM PM PM PM PM PM PM PM PM PM PM PM PM PM  
  S S  S  E  S T  T  S  T  T  S  T  T  S  T  T  S  T  T  S   
------------------------------------------------------------|
------------------------------------------------------------|
------------------------------------------------------------|
--9-------9--9----------------------------------------------|
--7-------7--7----------------------------------------------|
----0--0-------0--0--0--0--0--0--0--0--0--0--0--0--0--0--0--|


    PM PM      PM PM PM PM PM PM PM PM PM PM PM PM PM PM PM  
  S S  S  E  S T  T  S  T  T  S  T  T  S  T  T  S  T  T  S   
------------------------------------------------------------|
------------------------------------------------------------|
------------------------------------------------------------|
--9-------9--9----------------------------------------------|
--7-------7--7----------------------------------------------|
----0--0-------0--0--0--0--0--0--0--0--0--0--0--0--0--0--0--|


    PM PM      PM PM PM   PM PM      PM PM PM  
  S S  S  E  S T  T  S  S S  S  E  S T  T  S   
----------------------------------------------|
----------------------------------------------|
----------------------------------------------|
----------------------------------------------|
--8-------8--8----------8-------8--8----------|
--6-0--0--6--6-0--0--0--6-0--0--6--6-0--0--0--|


  PM PM    PM PM                        
  S  S  E  S  S  E  S E  Q     S        
---------------------------------|----||
---------------------------------|----||
--------5--------7--7-9--9\------|----||
--------5--------7--7-9--9\------|----||
--3--3--3--5--5--5--5-7--7\------|----||
---------------------------------|----||




Duration Legend
---------------
W - whole
H - half
Q - quarter
E - 8th
S - 16th
T - 32nd
X - 64th
. - note dotted
|-n-|  - n-tuplets


Tablature Legend
----------------
L - tied note
x - dead note
g - grace note
(n) - ghost note
> - accentuded note
NH - natural harmonic
AH - artificial harmonic
TH - tapped harmonic
SH - semi harmonic
PH - pitch harmonic
h - hammer on
p - pull off
b - bend
br - bendRelease
pb - preBend
pbr - preBendRelease
brb - bendReleaseBend
\n/ - tremolo bar dip
\n - tremolo bar dive
-/n - tremolo bar Release up
/n\ - tremolo bar inverted dip
/n - tremolo bar return
-\n - tremolo bar Release down
S - shift slide
s - legato slide
/ -  slide into from below or out of upwards
\ -  slide into from above or out of downwards
~ - vibrato
W - wide vibrato
tr - trill
TP - tremolo picking
T - tapping
S - slap
P - pop
< - fade in
^ - brush up
v - brush down
comments
We did not receive enough feedback on this tab! Please rate:
print report bad tab
1 2 3 4 5
2 comments total.
0 reply
bassiscool44 wrote on August 16 2010, 04:44 pm

THANK GOD finally a tab for this, a good one too!

0 reply
\m/TheWickerMan wrote on August 22 2012, 01:29 pm

Great tab! You really deserve the 5 full stars! Very good work on a very good song

I want to post or [tab]
guest
You may want to rate the tab now too:
select rating
Please do not post tabs as comments. Select "correction" instead!