Oops, an error
Loading. Please wait.

Deadly Sinners Bass Tab

ver2
ver2

Whole song

More versions @911Tabs.com
927 views 1 this week
no commentswrite comment
1 2 3 4 5
worth learning
x 2
add to favorites launch autoscroll
font size
0
reset
Autoscroll
+/-
esc
set tempo
stop
Contributor
WARNING: You are trying to view
                                    content from Ultimate-Guitar.com
                                    in an unauthorized application,
                                    which is prohibited.

                                    Please use an official Ultimate
                                    Guitar Tabs application for iPhone,
                                    iPad or Android to access legitimate
                                    chords, guitar, bass, and drum tabs
                                    from Ultimate-Guitar.com database.

                                    Type "ultimate guitar tabs" in Apple
                                    App Store's or Android Market's
                                    search to find the application.
Transcribed by Fr33kbass3572

Bass

     W                   W                   W                 
G||-------------------|-------------------|-------------------|
D||-------------------|-------------------|-------------------|
A||-------------------|-------------------|-------------------|
E||-------------------|-------------------|-------------------|


  W                   W                   W                   W                 
-------------------|-------------------|-------------------|-------------------|
-------------------|-------------------|-------------------|-------------------|
-------------------|-------------------|-------------------|-------------------|
-------------------|-------------------|-------------------|-------------------|

        
  H.                                             E  E   
-------------------------------------------------------|
-------------------------------------------------------|
----------------------------------------------------0--|
-------------------------------------------------------|


  E  E  E  E  E  E  E  E     E  E  E  E  E  E  E  E   
--------------------------|--------------------------|
--------------------------|--------------------------|
--L--0--5--0--3--0--2--0--|--0--0--2--0--------0--0--|
--------------------------|--------------3--3--------|


  E  E  E  E  E  E  E  E     E  E  E  E  E  E  E  E   
--------------------------|--------------------------|
--------------------------|--------------------------|
--L--0--5--0--3--0--2--0--|--0--0--2--0--------0--0--|
--------------------------|--------------4--4--------|


  E  E  E  E  E  E  E  E     E  E  E  E  E  E  E  E   
--------------------------|--------------------------|
--------------------------|--------------------------|
--L--0--5--0--3--0--2--0--|--0--0--2--0--------0--0--|
--------------------------|--------------3--3--------|


  E  E  E  E  E  E  E  E     E  E  E  E  E  E  E  E   
--------------------------|--------------------------|
--------------------------|--------------------------|
--L--0--5--0--3--0--2--0--|--0--0--2--0--------0--0--|
--------------------------|--------------4--4--------|


  E  E  E  E  E  E  E  E     E  E  E  E  E  E  E  E   
--------------------------|--------------------------|
--------------------------|--------------------------|
--L--0--0--0--0--0--0--0--|--0--0--0--0--0--0--0--2--|
--------------------------|--------------------------|


  E  E  E  E  E  E  E  E     E  E  E  E  E  E  E  E   
--------------------------|--------------------------|
--------------------------|--------------------------|
--L--2--2--2--2--2--2--2--|--2--2--2--2--2--2--2--3--|
--------------------------|--------------------------|


  E  E  E  E  E  E  E  E     E  E  E  E  E  E  E  E   
--------------------------|--------------------------|
--------------------------|--------------------------|
--L--3--3--3--3--3--3--3--|--3--3--3--3--3--3--3-----|
--------------------------|-----------------------3--|


  E  E  E  E  E  E  E  E     E  E  E  E  E  E  E  E   
--------------------------|--------------------------|
--------------------------|--------------------------|
--------------------------|-----------------------0--|
--L--3--3--3--3--3--3--3--|--3--3--3--3--3--3--3-----|


  E  E  E  E  E  E  E  E     E  E  E  E  E  E  E  E   
--------------------------|--------------------------|
--------------------------|--------------------------|
--L--0--0--0--0--0--0--0--|--0--0--0--0--0--0--0--2--|
--------------------------|--------------------------|


  E  E  E  E  E  E  E  E     E  E  E  E  E  E  E  E   
--------------------------|--------------------------|
--------------------------|--------------------------|
--L--2--2--2--2--2--2--2--|--2--2--2--2--2--2--2--3--|
--------------------------|--------------------------|


  E  E  E  E  E  E  E  E     E  E  E  E  E  E  E  E   
--------------------------|--------------------------|
--------------------------|--------------------------|
--L--3--3--3--3--3--3--3--|--3--3--3--3--3--3--3-----|
--------------------------|-----------------------3--|


  E  E  E  E  E  E  E  E     E  E  E  E  E  E  E  E     Q    E  E  E  E  E  E   
--------------------------|--------------------------|-------------------------|
--------------------------|--------------------------|-------------------------|
--------------------------|-----------------------0--|--L----0--0--0--0--0--0--|
--L--3--3--3--3--3--3--3--|--3--3--3--3--3--3--3-----|-------------------------|


  E  E  E  E  E  E  E  E     Q    E  E  E  E  E  E     E  E  E  E  E  Q    E   
--------------------------|-------------------------|-------------------------|
--------------------------|-------------------------|-------------------------|
--0--0--0--0--0--0--0--0--|--L----0--0--0--0--0--0--|--0--0--0--0--0-------0--|
--------------------------|-------------------------|-----------------3-------|


  Q    E  E  E  E  E  E     E  E  E  E  E  E  E  E     Q    E  E  E  E  E  E   
-------------------------|--------------------------|-------------------------|
-------------------------|--------------------------|-------------------------|
--L----0--0--0--0--0--0--|--0--0--0--0--0--0--0--0--|--L----0--0--0--0--0--0--|
-------------------------|--------------------------|-------------------------|


  E  E  E  E  E  Q    E     Q    E  E  E  E  E  E     E  E  E  E  E  E  E  E   
-------------------------|-------------------------|--------------------------|
-------------------------|-------------------------|--------------------------|
--0--0--0--0--0-------0--|--L----0--0--0--0--0--0--|--0--0--0--0--0--0--0--0--|
-----------------3-------|-------------------------|--------------------------|


  Q    E  E  E  E  E  E     E  E  E  E  E  Q    E     Q    E  E  E  E  E  E   
-------------------------|-------------------------|-------------------------|
-------------------------|-------------------------|-------------------------|
--L----0--0--0--0--0--0--|--0--0--0--0--0-------0--|--L----0--0--0--0--0--0--|
-------------------------|-----------------3-------|-------------------------|


  E  E  E  E  E  E  E  E     Q    E  E  E  E  E  E     E  E  E  E  E  Q    E   
--------------------------|-------------------------|-------------------------|
--------------------------|-------------------------|-------------------------|
--0--0--0--0--0--0--0--0--|--L----0--0--0--0--0--0--|--0--0--0--0--0----------|
--------------------------|-------------------------|-----------------3----5--|


  W                   H        E  Q    E     W                 
-------------------|----------------------|-------------------|
-------------------|----------------------|-------------------|
-------------------|----------------------|-------------------|
--L----------------|--L--------L--3----5--|--L----------------|


  H        E  Q    E     W                   H        E  Q    E   
----------------------|-------------------|----------------------|
----------------------|-------------------|----------------------|
----------------------|-------------------|----------------------|
--L--------L--3----1--|--L----------------|--L--------L--3----5--|


  W                   H        E  Q    E     W                 
-------------------|----------------------|-------------------|
-------------------|----------------------|-------------------|
-------------------|----------------------|-------------------|
--L----------------|--L--------L--3----5--|--L----------------|


  H        E  Q    E     W                   H        E  Q    E   
----------------------|-------------------|----------------------|
----------------------|-------------------|----------------------|
----------------------|-------------------|----------------------|
--L--------L--3----5--|--L----------------|--L--------L--3----1--|


  W                   H        E  Q    E     W                 
-------------------|----------------------|-------------------|
-------------------|----------------------|-------------------|
-------------------|----------------------|-------------------|
--L----------------|--L--------L--3----5--|--L----------------|


  H        E  Q    E     E  E  E  E  Q    Q        Q     Q    E  E  E  E   
----------------------|-------------------------|-------------------------|
----------------------|-------------------------|-------------------------|
----------------------|-------------------3~----|--2~---------------------|
--L--------L--3----5--|--L--5--5--3--5----------|--------3----3--3--5--5--|


  E  E  E  E  Q    Q        Q     Q    E  E  E  E     E  E  E  E  Q    Q      
-------------------------|-------------------------|-------------------------|
-------------------------|-------------------------|-------------------------|
-------------------3~----|--2~---------------------|-------------------3~----|
--L--5--5--3--5----------|--------3----3--3--5--1--|--L--5--5--3--5----------|


  Q     Q    E  E  E  E     E  E  E  E  Q    Q        Q     Q    E  E  E  E   
-------------------------|-------------------------|-------------------------|
-------------------------|-------------------------|-------------------------|
--2~---------------------|-------------------3~----|--2~---------------------|
--------3----3--3--5--5--|--L--5--5--3--5----------|--------3----3--3--5--5--|


  E  E  E  E  Q    Q        Q     Q    E  E  E  E     E  E  E  E  Q    Q      
-------------------------|-------------------------|-------------------------|
-------------------------|-------------------------|-------------------------|
-------------------3~----|--2~---------------------|-------------------3~----|
--L--5--5--3--5----------|--------3----3--3--5--5--|--L--5--5--3--5----------|


  Q     Q    E  E  E  E     E  E  E  E  Q    Q        Q     Q    E  E  E  E   
-------------------------|-------------------------|-------------------------|
-------------------------|-------------------------|-------------------------|
--2~---------------------|-------------------3~----|--2~---------------------|
--------3----3--3--5--1--|--L--5--5--3--5----------|--------3----3--3--5--5--|


  E  E  E  E  Q    Q        Q     Q    E  E  E  E     E  E  E  E  E  E  E  E   
-------------------------|-------------------------|--------------------------|
-------------------------|-------------------------|--------------------------|
-------------------3~----|--2~---------------------|--------------------------|
--L--5--5--3--5----------|--------3----3--3--5--5--|--L--5--5--5--5--5--5--5--|


  E  E  E  E  E  E  E  E     Q    E  E  E  E  E  E     Q    E  E  E  E  E  E   
--------------------------|-------------------------|-------------------------|
--------------------------|-------------------------|-------------------------|
--------------------------|-------------------------|--2----2--2--2--2--2--2--|
--5--5--5--5--5--5--5--5--|--1----1--1--1--1--1--1--|-------------------------|


  Q    E  E  E  E  E  E     E  E  E  E  E  E  E  E     Q    E  E  E  E  E  E   
-------------------------|--------------------------|-------------------------|
-------------------------|--------------------------|-------------------------|
-------------------------|--------------------------|-------------------------|
--5----5--5--5--5--5--5--|--5--5--5--5--5--5--5--5--|--1----1--1--1--1--1--1--|


  Q    E  E  E  E  E  E     Q    E  E  E  E  E  E     E  E  E  E  E  E  E  E   
-------------------------|-------------------------|--------------------------|
-------------------------|-------------------------|--------------------------|
--2----2--2--2--2--2--2--|-------------------------|--------------------------|
-------------------------|--5----5--5--5--5--5--5--|--5--5--5--5--5--5--5--5--|


  Q    E  E  E  E  E  E     Q    E  E  E  E  E  E     Q    E  E  E  E  E  E   
-------------------------|-------------------------|-------------------------|
-------------------------|-------------------------|-------------------------|
-------------------------|--2----2--2--2--2--2--2--|-------------------------|
--1----1--1--1--1--1--1--|-------------------------|--5----5--5--5--5--5--5--|


  E  E  E  E  E  E  E  E     Q    E  E  E  E  E  E     Q    E  E  E  E  E  E   
--------------------------|-------------------------|-------------------------|
--------------------------|-------------------------|-------------------------|
--------------------------|-------------------------|--2----2--2--2--2--2--2--|
--5--5--5--5--5--5--5--5--|--1----1--1--1--1--1--1--|-------------------------|


  W                   W                   W                   W                 
-------------------|-------------------|-------------------|-------------------|
-------------------|-------------------|-------------------|-------------------|
--0----------------|--L----------------|--0----------------|--L----------------|
-------------------|-------------------|-------------------|-------------------|


  W                   W                   W                   W                 
-------------------|-------------------|-------------------|-------------------|
-------------------|-------------------|-------------------|-------------------|
--0----------------|--L----------------|--0----------------|--L----------------|
-------------------|-------------------|-------------------|-------------------|


  E  E  E  E  E  E  E  E     E  E  E  E  E  E  E  E   
--------------------------|--------------------------|
--------------------------|--------------------------|
--------------------------|--------------------------|
--5--5--5--5--5--5--5--5--|--5--5--5--5--5--5--5--5--|


  E  E  E  E  E  E  E  E     E  E  E  E  E  E  E  E   
--------------------------|--------------------------|
--------------------------|--------------------------|
--------------------------|--------------------------|
--7--7--7--7--7--7--7--7--|--7--7--7--7--7--7--7--7--|


  E  E  E  E  E  E  E  E     E  E  E  E  E  E  E  E   
--------------------------|--------------------------|
--------------------------|--------------------------|
--------------------------|--------------------------|
--8--8--8--8--8--8--8--8--|--8--8--8--8--8--8--8--8--|


  E  E  E  E  E  E  E  E     E  E  E  E  E  E  E  E   
--------------------------|--------------------------|
--------------------------|--------------------------|
--------------------------|--------------------------|
--3--3--3--3--3--3--3--3--|--3--3--3--3--3--3--3--3--|


  E  E  E  E  E  E  E  E     E  E  E  E  E  E  E  E   
--------------------------|--------------------------|
--------------------------|--------------------------|
--------------------------|--------------------------|
--5--5--5--5--5--5--5--5--|--5--5--5--5--5--5--5--5--|


  E  E  E  E  E  E  E  E     E  E  E  E  E  E  E  E   
--------------------------|--------------------------|
--------------------------|--------------------------|
--------------------------|--------------------------|
--7--7--7--7--7--7--7--7--|--7--7--7--7--7--7--7--7--|


  E  E  E  E  E  E  E  E     E  E  E  E  E  E  E  E   
--------------------------|--------------------------|
--------------------------|--------------------------|
--------------------------|--------------------------|
--8--8--8--8--8--8--8--8--|--8--8--8--8--8--8--8--8--|


  E  E  E  E  E  E  E  E     E  E  E  E  E  E  E  E     E  E  Q    E  E  Q     
--------------------------|--------------------------|------------------------|
--------------------------|--------------------------|------------------------|
--------------------------|--------------------------|--0--0-------0--0-------|
--3--3--3--3--3--3--3--3--|--3--3--3--3--3--3--3--3--|------------------------|


  E  E  Q    E  Q    E     Q    E  E  E  E  E  E     E  E  E  E  E  E  E  E   
------------------------|-------------------------|--------------------------|
------------------------|-------------------------|--------------------------|
--0--0-------0----------|-------------------------|--------------------------|
----------------3----5--|--L----5--5--5--5--5--5--|--5--5--5--5--3--3--0--1--|


  Q    E  E  E  E  E  E     E  E  E  E  E  E  E  E     Q    E  E  E  E  E  E   
-------------------------|--------------------------|-------------------------|
-------------------------|--------------------------|-------------------------|
-------------------------|--------------------------|-------------------------|
--L----1--1--1--1--1--1--|--1--1--1--1--3--3--0--5--|--L----5--5--5--5--5--5--|


  E  E  E  E  E  E  E  E     Q    E  E  E  E  E  E     E  E  E  E  E  E  E  E   
--------------------------|-------------------------|--------------------------|
--------------------------|-------------------------|--------------------------|
--------------------------|-------------------------|--------------------------|
--5--5--5--5--3--3--0--1--|--L----1--1--1--1--1--1--|--1--1--1--1--3--3--0--5--|


  Q    E  E  E  E  E  E     E  E  E  E  E  E  E  E     Q    E  E  E  E  E  E   
-------------------------|--------------------------|-------------------------|
-------------------------|--------------------------|-------------------------|
-------------------------|--------------------------|-------------------------|
--L----5--5--5--5--5--5--|--5--5--5--5--3--3--0--1--|--L----1--1--1--1--1--1--|


  E  E  E  E  E  E  E  E     Q    E  E  E  E  E  E     E  E  E  E  E  E  E  E   
--------------------------|-------------------------|--------------------------|
--------------------------|-------------------------|--------------------------|
-----------------------0--|--L----0--0--0--0--0--0--|--0--0--0--0--0--0--0--0--|
--1--1--1--1--3--3--0-----|-------------------------|--------------------------|


  Q    E  E  E  E  E  E     E  E  E  E  E  Q    E     Q    E  E  E  E  E  E   
-------------------------|-------------------------|-------------------------|
-------------------------|-------------------------|-------------------------|
--L----0--0--0--0--0--0--|--0--0--0--0--0-------0--|--L----0--0--0--0--0--0--|
-------------------------|-----------------3-------|-------------------------|


  E  E  E  E  E  E  E  E     Q    E  E  E  E  E  E     E  E  E  E  E  Q    E   
--------------------------|-------------------------|-------------------------|
--------------------------|-------------------------|-------------------------|
--0--0--0--0--0--0--0--0--|--L----0--0--0--0--0--0--|--0--0--0--0--0-------0--|
--------------------------|-------------------------|-----------------3-------|


  Q    E  E  E  E  E  E     E  E  E  E  E  E  E  E     Q    E  E  E  E  E  E   
-------------------------|--------------------------|-------------------------|
-------------------------|--------------------------|-------------------------|
--L----0--0--0--0--0--0--|--0--0--0--0--0--0--0--0--|--L----0--0--0--0--0--0--|
-------------------------|--------------------------|-------------------------|


  E  E  E  E  E  Q    E     Q    E  E  E  E  E  E     E  E  E  E  E  E  E  E   
-------------------------|-------------------------|--------------------------|
-------------------------|-------------------------|--------------------------|
--0--0--0--0--0-------0--|--L----0--0--0--0--0--0--|--0--0--0--0--0--0--0--0--|
-----------------3-------|-------------------------|--------------------------|


  Q    E  E  E  E  E  E     E  E  E  E  E  Q    E     W                 
-------------------------|-------------------------|-------------------|
-------------------------|-------------------------|-------------------|
--L----0--0--0--0--0--0--|--0--0--0--0--0----------|-------------------|
-------------------------|-----------------3----5--|--L----------------|


  H        E  Q    E     W                   H        E  Q    E   
----------------------|-------------------|----------------------|
----------------------|-------------------|----------------------|
----------------------|-------------------|----------------------|
--L--------L--3----5--|--L----------------|--L--------L--3----1--|


  W                   H        E  Q    E     W                 
-------------------|----------------------|-------------------|
-------------------|----------------------|-------------------|
-------------------|----------------------|-------------------|
--L----------------|--L--------L--3----5--|--L----------------|


  H        E  Q    E     W                   H        E  Q    E   
----------------------|-------------------|----------------------|
----------------------|-------------------|----------------------|
----------------------|-------------------|----------------------|
--L--------L--3----5--|--L----------------|--L--------L--3----5--|


  W                   H        E  Q    E     W                 
-------------------|----------------------|-------------------|
-------------------|----------------------|-------------------|
-------------------|----------------------|-------------------|
--L----------------|--L--------L--3----1--|--L----------------|


  H        E  Q    E     W                   H        E  Q    E   
----------------------|-------------------|----------------------|
----------------------|-------------------|----------------------|
----------------------|-------------------|----------------------|
--L--------L--3----5--|--L----------------|--L--------L--3----5--|


  E  E  E  E  Q    Q        Q     Q    E  E  E  E     E  E  E  E  Q    Q      
-------------------------|-------------------------|-------------------------|
-------------------------|-------------------------|-------------------------|
-------------------3~----|--2~---------------------|-------------------3~----|
--L--5--5--3--5----------|--------3----3--3--5--5--|--L--5--5--3--5----------|


  Q     Q    E  E  E  E     E  E  E  E  Q    Q        Q     Q    E  E  E  E   
-------------------------|-------------------------|-------------------------|
-------------------------|-------------------------|-------------------------|
--2~---------------------|-------------------3~----|--2~---------------------|
--------3----3--3--5--1--|--L--5--5--3--5----------|--------3----3--3--5--5--|


  E  E  E  E  Q    Q        Q     Q    E  E  E  E     E  E  E  E  Q    Q      
-------------------------|-------------------------|-------------------------|
-------------------------|-------------------------|-------------------------|
-------------------3~----|--2~---------------------|-------------------3~----|
--L--5--5--3--5----------|--------3----3--3--5--5--|--L--5--5--3--5----------|


  Q     Q    E  E  E  E     E  E  E  E  Q    Q        Q     Q    E  E  E  E   
-------------------------|-------------------------|-------------------------|
-------------------------|-------------------------|-------------------------|
--2~---------------------|-------------------3~----|--2~---------------------|
--------3----3--3--5--5--|--L--5--5--3--5----------|--------3----3--3--5--1--|


  E  E  E  E  Q    Q        Q     Q    E  E  E  E     E  E  E  E  Q    Q      
-------------------------|-------------------------|-------------------------|
-------------------------|-------------------------|-------------------------|
-------------------3~----|--2~---------------------|-------------------3~----|
--L--5--5--3--5----------|--------3----3--3--5--5--|--L--5--5--3--5----------|


                                                                  TP  
  Q     Q    E  E  E  E      Q    H.              H.           E  E   
--------------------------|--------------------|---------------------|
--------------------------|--------------------|---------------------|
--2~----------------------|--------------------|---------------------|
--------3----3--3--5--5\--|--L-----------------|------------------5--|


                                      TP                    TP  
  W                   H.           E  E     H.           E  E   
-------------------|---------------------|---------------------|
-------------------|---------------------|---------------------|
-------------------|---------------------|---------------------|
--L----------------|--L------------L--8--|--L------------L--3--|


         TP       TP                                        TP  
  Q.     H        E     W                   H.           E  E   
---------------------|-------------------|---------------------|
---------------------|-------------------|---------------------|
---------------------|-------------------|---------------------|
--L------1--------5--|--L----------------|--L------------L--8--|


                  TP           TP                                      
  H.           E  E     Q.     H        E     E  E  E  E  E  E  E  E   
---------------------|---------------------|--------------------------|
---------------------|---------------------|--------------------------|
---------------------|---------------------|--------------------------|
--L------------L--3--|--L------1--------5--|--L--5--5--5--5--5--5--5--|


  E  E  E  E  E  E  E  E     E  E  E  E  E  E  E  E   
--------------------------|--------------------------|
--------------------------|--------------------------|
--------------------------|--------------------------|
--5--5--5--5--5--5--5--3--|--L--3--3--1--L--1--1--1--|


  E  E  E  E  E  E  E  E     E  E  E  E  E  E  E  E   
--------------------------|--------------------------|
--------------0--1--2-----|--------------------------|
--------0--2--------------|--------------------------|
--1--3-----------------5--|--L--5--5--5--5--5--5--5--|


  E  E  E  E  E  E  E  E     E  E  E  E  E  E  E  E   
--------------------------|--------------------------|
--------------------------|--------------------------|
--------------------------|--------------------------|
--5--5--5--5--5--5--5--3--|--L--3--3--1--L--1--1--1--|


  E  E  E  E  E  E  E  E     E  E  E  E  E  E  E  E   
--------------------------|--------------------------|
--------------0--1--2-----|--------------------------|
--------0--2--------------|--------------------------|
--1--3-----------------5--|--L--5--5--5--5--5--5--5--|


  E  E  E  E  E  E  E  E     E  E  E  E  E  E  E  E   
--------------------------|--------------------------|
--------------------------|--------------------------|
--------------------------|--------------------------|
--5--5--5--5--5--5--5--3--|--L--3--3--1--L--1--1--1--|


  E  E  E  E  E  E  E  E     E  E  E  E  E  E  E  E   
--------------------------|--------------------------|
--------------0--1--2-----|--------------------------|
--------0--2--------------|--------------------------|
--1--3-----------------5--|--L--5--5--5--5--5--5--5--|


  E  E  E  E  E  E  E  E     E  E  E  E  E  E  E  E   
--------------------------|--------------------------|
--------------------------|--------------------------|
--------------------------|--------------------------|
--5--5--5--5--5--5--5--3--|--L--3--3--1--L--1--1--1--|


  E  E  E  E  E  E  E  E     W                   W                 
--------------------------|-------------------|-------------------|
--------------0--1--2-----|-------------------|-------------------|
--------0--2--------------|-------------------|-------------------|
--1--3-----------------5--|--L----------------|--L----------------|


  W                   E  E  E  E  E  E  E  E     E  H.           E    
-------------------|--------------------------|---------------------||
-------------------|--------------0--1--2-----|---------------------||
-------------------|--------0--2-----------0--|--L------------------||
--L----------------|--1--3--------------------|---------------------||




Duration Legend
---------------
W - whole
H - half
Q - quarter
E - 8th
S - 16th
T - 32nd
X - 64th
. - note dotted
|-n-|  - n-tuplets


Tablature Legend
----------------
L - tied note
x - dead note
g - grace note
(n) - ghost note
> - accentuded note
NH - natural harmonic
AH - artificial harmonic
TH - tapped harmonic
SH - semi harmonic
PH - pitch harmonic
h - hammer on
p - pull off
b - bend
br - bendRelease
pb - preBend
pbr - preBendRelease
brb - bendReleaseBend
\n/ - tremolo bar dip
\n - tremolo bar dive
-/n - tremolo bar Release up
/n\ - tremolo bar inverted dip
/n - tremolo bar return
-\n - tremolo bar Release down
S - shift slide
s - legato slide
/ -  slide into from below or out of upwards
\ -  slide into from above or out of downwards
~ - vibrato
W - wide vibrato
tr - trill
TP - tremolo picking
T - tapping
S - slap
P - pop
< - fade in
^ - brush up
v - brush down
comments
We did not receive enough feedback on this tab! Please rate:
print report bad tab
1 2 3 4 5
I want to post or [tab]
guest
You may want to rate the tab now too:
select rating
Please do not post tabs as comments. Select "correction" instead!