Oops, an error
Loading. Please wait.

Deadly Sinners Tab

ver2
ver2

Intro

Whole song

More versions @911Tabs.com
36,101 views 30 this week
12 commentsread comments
1 2 3 4 5
excellent!
x 23
Autoscroll
+/-
esc
set tempo
stop
Hey! There's an official Ultimate Guitar app which is ideal
for learning songs when you're away from computer. Get the app
WARNING: You are trying to view
                                    content from Ultimate-Guitar.com
                                    in an unauthorized application,
                                    which is prohibited.

                                    Please use an official Ultimate
                                    Guitar Tabs application for iPhone,
                                    iPad or Android to access legitimate
                                    chords, guitar, bass, and drum tabs
                                    from Ultimate-Guitar.com database.

                                    Type "ultimate guitar tabs" in Apple
                                    App Store's or Android Market's
                                    search to find the application.
                                 DEADLY SINNERS
                        As recorded by 3 Inches of Blood
                   (From the 2004 Album ADVANCE AND VANQUISH)

Gtr I (E A D G B E) - 'Guitar 1'
Gtr II (E A D G B E) - 'Guitar 2'

 Intro
  Q=202
  N.C.
 4/4
  Gtr I
  PM|    PM   PM  PM    PM  PM    PM        PM   PM   PM  PM    PM  PM    PM
  E E  E E  E E E E   E E E E E E E E   +E  E  E E  E E E E   E E E E E E E E
|-------------------|-----------------|---------------------|------------------|
|-------------------|-----------------|---------------------|------------------|
|-------------------|-----------------|---------------------|------------------|
|-----12---10---9---|-7---9---5-5---7-|-(7)---12---10---9---|-7---9---6-6---7--|
|-0-0----0----0---0-|---0---0-----0---|-----0----0----0---0-|---0---0-----0----|
|-------------------|-----------------|---------------------|------------------|


      PM   PM   PM  PM     PM  PM    PM
  +E  E  E E  E E E E   E  E E E E E E  E
|---------------------|--------------------|
|---------------------|--------------------|
|---------------------|--------------------|
|-(7)---12---10---9---|-7----9---5-5----7--|
|-----0----0----0---0-|----0---0-----0-----|
|---------------------|--------------------|
|
| Gtr II
|                                       ~~~~
|  W                    H.           E  E
|---------------------|--------------------|
|---------------------|--------------------|
|---------------------|----------------[7]-|
|---------------------|--------------------|
|---------------------|--------------------|
|---------------------|--------------------|


                                       G#5   A5
        PM   PM   PM  PM         PM  PM    PM
   +E   E  E E  E E E E     E    E E E E E E E
|-----------------------|----------------------||
|-----------------------|----------------------||
|-----------------------|----------------------||
|--(7)----12---10---9---|---7------9---6-6---7-||
|-------0----0----0---0-|--------0---0-6-6-0-7-||
|-----------------------|----------------------||
|
|~~~~~~~                                   PM
|  +W                      +H          E E E E
|-----------------------|----------------------||
|-----------------------|----------------------||
|-([7])-----------------|-([7])\---------------||
|-----------------------|--------------6-6---7-||
|-----------------------|--------------6-6-0-7-||
|-----------------------|----------------------||


   Pre-Verse
        N.C.
    Gtrs I, II
        PM   PM   PM  PM    PM  PM    PM
    +E  E  E E  E E E E   E E E E E E E E
||----------------------|-----------------|
||o---------------------|-----------------|
||----------------------|-----------------|
||--(7)---12---10---9---|-7---9---5-5---7-|
||o-(7)-0----0----0---0-|---0---0-----0---|
||----------------------|-----------------|


                                G#5   A5
      PM   PM   PM  PM    PM  PM    PM
  +E  E  E E  E E E E   E E E E E E E E
|---------------------|-------------------||
|---------------------|------------------o||
|---------------------|-------------------||
|-(7)---12---10---9---|-7---9---6-6---7---||
|-----0----0----0---0-|---0---0-6-6-0-7--o||
|---------------------|-------------------||


   Verse
        N.C.
        PM   PM   PM  PM    PM  PM    PM
    +E  E  E E  E E E E   E E E E E E E E
||----------------------|-----------------|
||o---------------------|-----------------|
||----------------------|-----------------|
||--(7)---12---10---9---|-7---9---5-5---7-|
||o-(7)-0----0----0---0-|---0---0-----0---|
||----------------------|-----------------|


                       1.,2.,3.            4.
                                G#5   A5            G#5   A5
      PM   PM   PM  PM    PM  PM    PM        PM  PM    PM
  +E  E  E E  E E E E   E E E E E E E E  4x E E E E E E E E
|---------------------|------------------||-------------------||
|---------------------|-----------------o||-------------------||
|---------------------|------------------||-------------------||
|-(7)---12---10---9---|-7---9---6-6---7--||-7---9---6-6---7---||
|-----0----0----0---0-|---0---0-6-6-0-7-o||---0---0-6-6-0-7---||
|---------------------|------------------||---------------5---||


   Pre-Chorus
    $
         N.C.                                A5
         PM--|     PM--|        PM--|
    +Q   S S E E E S S E    E E S S E  E  q  E
||-----------------------|---------------------|
||o----------------------|---------------------|
||-----------------------|---------------------|
||--(7)--------7---------|-10---------12-----7-|
||o-(7)--0-0-0---7-0-0-0-|----8-0-0-0----11--7-|
||--(5)------------------|-------------------5-|


                        1.,2.,3.              2.
       N.C.                           G5 A5             G5   A5
       PM--|     PM--|        PM----|               PM|
  +Q   S S E E E S S E    E E S S E E q  E  4x  E E E E E q  E
|----------------------|--------------------||-----------------||
|----------------------|-------------------o||-----------------||
|----------------------|--------------------||----------7-7--9-||
|-(7)--------7---------|-10-----------5--7--||-10-------5-5--7-||
|-(7)--0-0-0---7-0-0-0-|----8-0-0-0-0-5--7-o||----8-0-0--------||
|-(5)------------------|--------------3--5--||-----------------||


   Chorus
                        G5   A5                      G5   F5
    +W           +H     E q  E   +W           +H     E q  E
||-------------|---------------|------------|----------------|
||o------------|---------------|------------|----------------|
||--(9)--------|-(9)----7-7--9-|-(9)--------|-(9)----7-7--5--|
||--(7)--------|-(7)----5-5--7-|-(7)--------|-(7)----5-5--3--|
||o------------|---------------|------------|----------------|
||-------------|---------------|------------|----------------|


                                           1.                2.
                      G5   A5                      G5   A5           G5    A5
  +W           +H     E q  E   +W           +H     E q  E     +H     E E E E
|------------|---------------|------------|----------------||----------------||
|------------|---------------|------------|---------------o||----------------||
|-(5)--------|-(5)----7-7--9-|-(9)--------|-(9)----7-7--9--||-(9)----7-7-7-9-||
|-(3)--------|-(3)----5-5--7-|-(7)--------|-(7)----5-5--7--||-(7)----5-5-5-7-||
|------------|---------------|------------|---------------o||----------------||
|------------|---------------|------------|----------------||----------------||


   Bridge
        N.C.                 G5    A5      N.C.                 G5    F5
    Gtr I
                       ~         PM                       ~         PM
    +E  E E E Q   Q    Q  Q  E E E E   +E  E E E Q   Q    Q  Q  E E E E
||-------------------|---------------|------------------|----------------|
||o------------------|---------------|------------------|----------------|
||--(9)--------------|-------7-7---9-|-(9)--------------|-------7-7---5--|
||--(7)-7-7-5-7--10--|-9--5--5-5---7-|-(7)-7-7-5-7--10--|-9--5--5-5---3--|
||o------------------|-----------0---|------------------|-----------0----|
||-------------------|---------------|------------------|----------------|
|
|   Gtr II
|                      ~         PM                       ~         PM
|   +E  E E E Q   Q    Q  Q  E E E E   +E  E E E Q   Q    Q  Q  E E E E
||-------------------|---------------|------------------|----------------|
||o------------------|---------------|------------------|-------8-8---6--|
||--(9)--------------|-------7-7---9-|-(9)--------------|-------7-7---5--|
||--(7)-7-7-5-7--10--|-9--5--5-5---7-|-(7)-7-7-5-7--10--|-9--5-----------|
||o------------------|-----------0---|------------------|-----------0----|
||-------------------|---------------|------------------|----------------|


                                               To Coda
      N.C.                   G5    A5        N.C.
                      ~~~        PM
  +E  E E E Q   Q     Q   Q  E E E  E    +E  E E E Q   Q
|------------------|------------------|-------------------|
|------------------|------------------|-------------------|
|-(5)--------------|---------7-7----9-|--(9)--------------|
|-(3)-7-7-5-7--10--|-[9]--5--5-5----7-|--(7)-7-7-5-7--10--|
|------------------|-------------0----|-------------------|
|------------------|------------------|-------------------|
|
|                     ~~~        PM
| +E  E E E Q   Q     Q   Q  E E E  E    +E  E E E Q   Q
|------------------|------------------|-------------------|
|-(6)--------------|---------8-8---10-|-(10)--------------|
|-(5)--------------|---------7-7----9-|--(9)--------------|
|-----7-7-5-7--10--|-[9]--5-----------|------7-7-5-7--10--|
|------------------|-------------0----|-------------------|
|------------------|------------------|-------------------|


 1.                  2.
          G5    A5            G5    A5
   ~~~        PM       ~~~        PM
   Q   Q  E E E E      Q   Q  E E E E
|------------------||-----------------||
|-----------------o||-----------------||
|---------7-7---9--||---------7-7---2-||
|-[9]--5--5-5---7--||-[9]--5--5-5---2-||
|-------------0---o||-------------0-0-||
|------------------||-----------------||
|
|  ~~~        PM       ~~~        PM
|  Q   Q  E E E E      Q   Q  E E E E
|------------------||-----------------||
|-----------------o||-----------------||
|---------7-7---9--||---------7-7---2-||
|-[9]--5--5-5---7--||-[9]--5--5-5---2-||
|-------------0---o||-------------0-0-||
|------------------||-----------------||


 Verse
  Gtrs I, II
      PM------------------------|     PM------------------------|
  +E  S S S S S S S S S S S S S S   E S S S S S S S S S S S S S S
|---------------------------------|--------------------------------|
|---------------------------------|--------------------------------|
|-(2)-----------------------------|-2------------------------------|
|-(2)-----------------------------|-2------------------------------|
|-(0)-0-0-0-0-0-0-0-0-0-0-0-0-0-0-|-0-0-0-0-0-0-0-0-0-0-0-0-0-0-0--|
|---------------------------------|--------------------------------|


  F5                              N.C.
    PM------------------------|     PM------------------------|
  E S S S S S S S S S S S S S S   E S S S S S S S S S S S S S S
|-------------------------------|--------------------------------|
|-------------------------------|--------------------------------|
|-------------------------------|--------------------------------|
|-3-----------------------------|--------------------------------|
|-3-----------------------------|-2-2-2-2-2-2-2-3-2-0-2-3-2-0-2--|
|-1-1-1-1-1-1-1-1-1-1-1-1-1-1-1-|--------------------------------|


    A5
      PM------------------------|     PM------------------------|
    E S S S S S S S S S S S S S S   E S S S S S S S S S S S S S S
||--------------------------------|-------------------------------|
||o-------------------------------|-------------------------------|
||--2-----------------------------|-2-----------------------------|
||--2-----------------------------|-2-----------------------------|
||o-0-0-0-0-0-0-0-0-0-0-0-0-0-0-0-|-0-0-0-0-0-0-0-0-0-0-0-0-0-0-0-|
||--------------------------------|-------------------------------|


  F5                              N.C.
    PM------------------------|     PM------------------------|
  E S S S S S S S S S S S S S S   E S S S S S S S S S S S S S S   3x
|-------------------------------|---------------------------------||
|-------------------------------|--------------------------------o||
|-------------------------------|---------------------------------||
|-3-----------------------------|---------------------------------||
|-3-----------------------------|-2-2-2-2-2-2-2-3-2-0-2-3-2-0-2--o||
|-1-1-1-1-1-1-1-1-1-1-1-1-1-1-1-|---------------------------------||


   Interlude
    Q=192
    A5
    Gtr I
    PM--|       PM|         PM|   PM|
    E E E E +E  E E E   +E  E E E E E Q
||--------------------|------------------|
||o-------------------|------------------|
||--5-4-5-7-(7)-5-4-5-|-(5)-4---4--------|
||--------------------|-------7---7-5----|
||o-------------------|---------------7--|
||--------------------|------------------|
|
|   Gtr II
|   W                   +W
||--------------------|------------------|
||o-------------------|------------------|
||--2-----------------|-(2)--------------|
||--2-----------------|-(2)--------------|
||o-0-----------------|-(0)--------------|
||--------------------|------------------|


  A5
  PM--|       PM|         PM|   PM|
  E E E E +E  E E E   +E  E E E E E Q
|-------------------|--------------------||
|-------------------|-------------------o||
|-5-4-5-7-(7)-5-4-5-|-(5)-4---4----------||
|-------------------|-------7---7-5------||
|-------------------|---------------7---o||
|-------------------|--------------------||
|
| W                   +W
|-------------------|--------------------||
|-------------------|-------------------o||
|-2-----------------|-(2)----------------||
|-2-----------------|-(2)----------------||
|-0-----------------|-(0)---------------o||
|-------------------|--------------------||


    N.C.
    E E E  E +E  E E E   +E  E E E E E Q
||---------------------|------------------|
||o--------------------|------------------|
||----4-5--4-(4)-5-7---|-----4-5-----4----|
||--7----------------7-|-(7)-----5-7------|
||o--------------------|---------------7--|
||---------------------|------------------|
|
|   E E E  E +E  E E E   +E  E E E E E Q
||---------------------|------------------|
||o--------------------|------------------|
||--5-4---/7-(7)-5-4-5-|-(5)-4---4--------|
||------7--------------|-------7---7p5----|
||o--------------------|---------------7--|
||---------------------|------------------|


  E E E  E +E  E E E   +E  E E E E E Q
|--------------------|-------------------|
|--------------------|-------------------|
|---4-5--4-(4)-5-7---|-----4-5-----4-----|
|-7----------------7-|-(7)-----5-7-------|
|--------------------|---------------7---|
|--------------------|-------------------|
|
| E E E  E +E  E E E   +E  E E E E E Q
|--------------------|-------------------|
|--------------------|-------------------|
|-5-4---/7-(7)-5-4-5-|-(5)-4---4---------|
|-----7--------------|-------7---7p5-----|
|--------------------|---------------7---|
|--------------------|-------------------|


  E E E  E +E  E E E   +E  E E E E E Q
|--------------------|------------------|
|--------------------|------------------|
|---4-5--4-(4)-5-7---|-----4-5-----4----|
|-7----------------7-|-(7)-----5-7------|
|--------------------|---------------7--|
|--------------------|------------------|
|
| E E E  E +E  E E E   +E  E E E E E Q
|--------------------|------------------|
|--------------------|------------------|
|-5-4---/7-(7)-5-4-5-|-(5)-4---4--------|
|-----7--------------|-------7---7p5----|
|--------------------|---------------7--|
|--------------------|------------------|


  E E E  E +E  E E E   +E  E E E E E Q
|--------------------|-------------------||
|--------------------|------------------o||
|---4-5--4-(4)-5-7---|-----4-5-----4-----||
|-7----------------7-|-(7)-----5-7-------||
|--------------------|---------------7--o||
|--------------------|-------------------||
|
| E E E  E +E  E E E   +E  E E E E E Q
|--------------------|-------------------||
|--------------------|------------------o||
|-5-4---/7-(7)-5-4-5-|-(5)-4---4---------||
|-----7--------------|-------7---7p5-----||
|--------------------|---------------7--o||
|--------------------|-------------------||


  A5                                      G5 A5
  Gtrs I, II
      PM----|     PM----|       PM----|
  E E S S S S E E S S S S   E E S S S S E q  E
|-------------------------|--------------------||
|-------------------------|--------------------||
|-2-2---------2-2---------|-2-2---------2----2-||
|-2-2---------2-2---------|-2-2---------2-5--2-||
|-0-0-0-0-0-0-0-0-0-0-0-0-|-0-0-0-0-0-0-0-5--0-||
|-------------------------|---------------3----||


 Guitar Solo
                                                          G5    F5
  Gtr I
      PM                                                      PM
                                  |---3---|   |---3---|
  +E  E E   E   E   E   E   E     E   E   E   E   E   E   E E E E
|-------------------------------|---------------------------------|
|-------------------------------|---------------------------------|
|-(2)---------------------------|---------------------------------|
|-(2)---------------------------|-------------------------5-5---3-|
|-(0)-0-7p==5---5p==3---3p==0---|-5p==3p==0---5p==3p==0---5-5---3-|
|-------------------------------|-------------------------3-3-0-1-|
|
| Gtr II
|       PM----------------------------------------------|     PM
| +Q    S S S S S S S S S S S S   S S   S   S S S   S   S E E E E
|-------------------------------|---------------------------------|
|-------------------------------|---------------------------------|
|-(2)---------------------------|---------------------------------|
|-(2)---------------------------|-------------------------5-5---3-|
|-(0)---0-0-0-0-0-0-0-0-0-0-0-0-|-0-0---0---0-0-0---0---0-5-5---3-|
|-------------------------------|-------------------------3-3-0-1-|


                                              N.C.           A5
      PM                                                  ~
        |---3---|   |---3---|   |---3---|     |--3--|
  +E  E E   E   E   E   E   E   E   E   E     E E   E E E Q  Q
|-------------------------------------------|----------------------|
|-------------------------------------------|----------------------|
|-------------------------------------------|----------------------|
|-(3)---------------2h==3h==5---------------|-3p2p==0--------------|
|-(3)---0h==2h==3---------------0---0---0---|----------------------|
|-(1)-1-------------------------------------|---------4p0-4--------|
|
|       PM--------------------------------|               ~  PM
| +Q    S S   S   S S S   S   S S S   S   S   E   E   E E Q  E E
|-------------------------------------------|----------------------|
|-------------------------------------------|----------------------|
|-------------------------------------------|------------------2---|
|-(3)---------------------------------------|-2p==0------------2---|
|-(3)---------------------------------------|------------------0---|
|-(1)---1-1---1---1-1-1---1---1-1-1---1---1-|---------4p0-4--0-----|


   |-3--| |---3---|   |---3---|   |---3---|
   E  E E E   E   E   E   E   E   E   E   E
|---------------------------------------------|
|--6p=5p3-5p==3-------3-----------------------|
|-----------------5-------5p==4---5p==4p==0---|
|---------------------------------------------|
|---------------------------------------------|
|---------------------------------------------|
|
|         PM-----------------------------------
| +Q      S S   S   S S S   S   S S S   S   S
|---------------------------------------------|
|---------------------------------------------|
|-(2)-----------------------------------------|
|-(2)-----------------------------------------|
|-(0)-----0-0---0---0-0-0---0---0-0-0---0---0-|
|---------------------------------------------|


                          G5          F5
  |---3---|   |---3---|   |--3--| |--3--|
  E   E   E   E   E   E   E E   E E E   E
|-------------------------------------------|
|-5p==3-------3-----------------------------|
|---------5-------5p==4---5p4p==2-4p2p==0---|
|-------------------------------------------|
|-------------------------------------------|
|-------------------------------------------|
|
|-----------------------|         PM
| S S   S   S S S   S   S E   E   E   E
|-------------------------------------------|
|-------------------------------------------|
|-------------------------------------------|
|-------------------------5---5-------3-----|
|-0-0---0---0-0-0---0---0-5---5-------3-----|
|-------------------------3---3---0---1-----|


                                                N.C.                A5
                                                               ~
   |-3--| |---3---|   |---3---|   |---3---|     |--3--|
   E  E E E   E   E   E   E   E   E   E   E     E E   E S E.   H
|---------------------------------------------|-----------------------|
|--3------------------------------------------|-----------------------|
|-----5p4-5p==4p==2---4p==2p==0---4p==2p==0---|-5p4p==2-4h5----4------|
|---------------------------------------------|-----------------------|
|---------------------------------------------|-----------------------|
|---------------------------------------------|-----------------------|
|
|         PM--------------------------------|                  ~  PM
| +Q      S S   S   S S S   S   S S S   S   S   E   E   E    E Q  E E
|---------------------------------------------|-----------------------|
|---------------------------------------------|-----------------------|
|---------------------------------------------|---------------------2-|
|-(3)-----------------------------------------|-2p==0---------------2-|
|-(3)-----------------------------------------|---------------------0-|
|-(1)-----1-1---1---1-1-1---1---1-1-1---1---1-|---------4p===0-4--0---|


                                                    G5         F5
   ~~~~~~~~~~~~~~~~~~~~~~~~                                      ~
   H.                  +E    E      E   E   S S S S Q      E.    S
|--------------------------------|---------------------------------|
|----------------------------8---|-10---8-----8--------------------|
|--5-------------------(5)-------|----------9---9p7-7pb9---7b9r==5-|
|--------------------------------|---------------------------------|
|--------------------------------|---------------------------------|
|--------------------------------|---------------------------------|
|
|      PM-----------------------------------------|        PM
| +Q   S S S S S S S S  S  S S S    S S S S S S S S E    E E   E
|--------------------------------|---------------------------------|
|--------------------------------|---------------------------------|
|-(2)----------------------------|---------------------------------|
|-(2)----------------------------|------------------5----5-----3---|
|-(0)--0-0-0-0-0-0-0-0--0--0-0-0-|--0-0-0-0-0-0-0-0-5----5-----3---|
|--------------------------------|------------------3----3-0---1---|


                                               D.S. al Coda
                                       N.C.                A5
   ~~~~~~~~~~~~~~~~                               ~~~~~~
                         |---3---|
  +H           +E    E   E   E   E     S S S S +E E +H
|------------------------------------|-3h5p3------5-(5)-------||
|------------------------------------|-------5-(5)------------||
|-(5)----------(5)-------4---5---7---|------------------------||
|--------------------5---------------|------------------------||
|------------------------------------|------------------------||
|------------------------------------|------------------------||
|
|      PM--------------------------|                 ~~~ PM
| +Q   S S S S  S  S S S S S   S   S   E   E    E E  Q   E E
|------------------------------------|------------------------||
|------------------------------------|------------------------||
|------------------------------------|---------------------2--||
|-(3)--------------------------------|-2p==0---------------2--||
|-(3)--------------------------------|---------------------0--||
|-(1)--1-1-1-1--1--1-1-1-1-1---1---1-|----------4p0--4---0----||


  &
  N.C.    G5    A5                           A5
   ~~~        PM
   Q   Q  E E E E   +H      H      H.      E E
|-----------------|--------------|-------------||
|-----------------|--------------|-------------||
|---------7-7---9-|-(9)\---------|-----------2-||
|-[9]--5--5-5---7-|-(7)\---------|-----------2-||
|-------------0-7-|-(7)\---------|-----------0-||
|-----------------|--------------|-------------||
|
|  ~~~        PM
|  Q   Q  E E E E   +H      H      H.      E E
|-----------------|--------------|-------------||
|-----------------|--------------|-------------||
|---------7-7---9-|-(9)\---------|-----------2-||
|-[9]--5--5-5---7-|-(7)\---------|-----------2-||
|-------------0-7-|-(7)\---------|-----------0-||
|-----------------|--------------|-------------||


 Outro
                            C5               G5        F5      A5
  Gtr II
                            ~~~~~~~~~~~~~~~~~
  +W           +H.      +E  E   +H.      +E  E   +Q.   E +Q.   E
|------------|----------------|----------------|-----------------|
|------------|----------------|----------------|-----------------|
|-(2)--------|-(2)------(2)-5-|-(5)------(5)---|---------------2-|
|-(2)--------|-(2)------(2)---|--------------5-|-(5)-----------2-|
|-(0)--------|-(0)------(0)---|----------------|---------------0-|
|------------|----------------|----------------|-------1-(1)-----|
|
| Gtr I
| +W           +H.      +E  E   +H.      +E  E   +Q.   E +Q.   E
|------------|----------------|----------------|-----------------|
|------------|----------------|----------------|-----------------|
|-(2)--------|-(2)------(2)---|----------------|---------------2-|
|-(2)--------|-(2)------(2)-5-|-(5)------(5)---|-------3-(3)---2-|
|-(0)--------|-(0)------(0)-3-|-(3)------(3)-5-|-(5)-----------0-|
|------------|----------------|--------------3-|-(3)-------------|


                            C5               G5        F5      A5
                            ~~~~~~~~~~~~~~~~~
  +W           +H.      +E  E   +H.      +E  E   +Q.   E +Q.   E
|------------|----------------|----------------|-----------------|
|------------|----------------|----------------|-----------------|
|-(2)--------|-(2)------(2)-5-|-(5)------(5)---|---------------2-|
|-(2)--------|-(2)------(2)---|--------------5-|-(5)-----------2-|
|-(0)--------|-(0)------(0)---|----------------|---------------0-|
|------------|----------------|----------------|-------1-(1)-----|
|
| +W           +H.      +E  E   +H.      +E  E   +Q.   E +Q.   E
|------------|----------------|----------------|-----------------|
|------------|----------------|----------------|-----------------|
|-(2)--------|-(2)------(2)---|----------------|---------------2-|
|-(2)--------|-(2)------(2)-5-|-(5)------(5)---|-------3-(3)---2-|
|-(0)--------|-(0)------(0)-3-|-(3)------(3)-5-|-(5)-----------0-|
|------------|----------------|--------------3-|-(3)-------------|


         N.C.                               F5         N.C.          A5
               ~~~~~~~~   PM--|             ~~~~~~     PM----|
  +H     E E E E   +H     E E E E   +E  E E E +H       E E E E E E E E
|----------------|----------------|------------------|-----------------|
|----------------|----------------|------------------|-----------3-5---|
|-(2)------------|----------------|------------------|-----2-4-5-----2-|
|-(2)----3-2-0---|----------------|-------2----------|-3-5-----------2-|
|-(0)----------3-|-(3)----3-2-0---|-----5---3-(3)----|---------------0-|
|----------------|--------------3-|-(3)--------------|-----------------|
|
|              ~~~~~~~~   PM--| ~~~~~~~~               PM----------|
| +H     E E E E   +H     E E E E   +Q.     E +H       E E E E E E E E
|----------------|----------------|------------------|-----------------|
|----------------|----------------|------------------|-----------------|
|-(2)------------|----------------|------------------|---------------2-|
|-(2)----3-2-0---|--------------5-|-(5)--------------|-----------0-2-2-|
|-(0)----------3-|-(3)----0-2-3---|------------------|-----0-2-3-----0-|
|----------------|----------------|---------1-(1)----|-1-3-------------|


         N.C.                               F5         N.C.          A5
               ~~~~~~~~   PM--|             ~~~~~~     PM----|
  +H     E E E E   +H     E E E E   +E  E E E +H       E E E E E E E E
|----------------|----------------|------------------|-----------------|
|----------------|----------------|------------------|-----------3-5---|
|-(2)------------|----------------|------------------|-----2-4-5-----2-|
|-(2)----3-2-0---|----------------|-------2----------|-3-5-----------2-|
|-(0)----------3-|-(3)----3-2-0---|-----5---3-(3)----|---------------0-|
|----------------|--------------3-|-(3)--------------|-----------------|
|
|              ~~~~~~~~   PM--| ~~~~~~~~               PM----------|
| +H     E E E E   +H     E E E E   +Q.     E +H       E E E E E E E E
|----------------|----------------|------------------|-----------------|
|----------------|----------------|------------------|-----------------|
|-(2)------------|----------------|------------------|---------------2-|
|-(2)----3-2-0---|--------------5-|-(5)--------------|-----------0-2-2-|
|-(0)----------3-|-(3)----0-2-3---|------------------|-----0-2-3-----0-|
|----------------|----------------|---------1-(1)----|-1-3-------------|


         N.C.                               F5         N.C.          A5
               ~~~~~~~~   PM--|             ~~~~~~     PM----|
  +H     E E E E   +H     E E E E   +E  E E E +H       E E E E E E E E
|----------------|----------------|------------------|-----------------|
|----------------|----------------|------------------|-----------3-5---|
|-(2)------------|----------------|------------------|-----2-4-5-----2-|
|-(2)----3-2-0---|----------------|-------2----------|-3-5-----------2-|
|-(0)----------3-|-(3)----3-2-0---|-----5---3-(3)----|---------------0-|
|----------------|--------------3-|-(3)--------------|-----------------|
|
|              ~~~~~~~~   PM--| ~~~~~~~~               PM----------|
| +H     E E E E   +H     E E E E   +Q.     E +H       E E E E E E E E
|----------------|----------------|------------------|-----------------|
|----------------|----------------|------------------|-----------------|
|-(2)------------|----------------|------------------|---------------2-|
|-(2)----3-2-0---|--------------5-|-(5)--------------|-----------0-2-2-|
|-(0)----------3-|-(3)----0-2-3---|------------------|-----0-2-3-----0-|
|----------------|----------------|---------1-(1)----|-1-3-------------|


         N.C.                               F5         N.C.          A5
               ~~~~~~~~   PM--|             ~~~~~~     PM----|
  +H     E E E E   +H     E E E E   +E  E E E +H       E E E E E E E E
|----------------|----------------|------------------|-----------------||
|----------------|----------------|------------------|-----------3-5---||
|-(2)------------|----------------|------------------|-----2-4-5-----2-||
|-(2)----3-2-0---|----------------|-------2----------|-3-5-----------2-||
|-(0)----------3-|-(3)----3-2-0---|-----5---3-(3)----|---------------0-||
|----------------|--------------3-|-(3)--------------|-----------------||
|
|              ~~~~~~~~   PM--| ~~~~~~~~               PM----------|
| +H     E E E E   +H     E E E E   +Q.     E +H       E E E E E E E E
|----------------|----------------|------------------|-----------------||
|----------------|----------------|------------------|-----------------||
|-(2)------------|----------------|------------------|---------------2-||
|-(2)----3-2-0---|--------------5-|-(5)--------------|-----------0-2-2-||
|-(0)----------3-|-(3)----0-2-3---|------------------|-----0-2-3-----0-||
|----------------|----------------|---------1-(1)----|-1-3-------------||


  Q=160                                              H=H           Q=192
                                                     N.C.          A5
                                                     PM----------|
  +W               +W               +W               E E E E E E E E
|----------------|----------------|----------------|-----------------*|
|----------------|----------------|----------------|-----------------*|
|-(2)------------|-(2)------------|-(2)------------|---------------2-*|
|-(2)------------|-(2)------------|-(2)------------|-----------0---2-*|
|-(0)------------|-(0)------------|-(0)------------|-----0-2-3---0-0-*|
|----------------|----------------|----------------|-1-3-------------*|
|
|              ~~~~~~~~   PM--| ~~~~~~~~             PM----------|
| +H     E E E E   +H     E E E E   +Q.   E +H       E E E E E E E E
|----------------|----------------|----------------|-----------------*|
|----------------|----------------|----------------|-----------------*|
|-(2)------------|----------------|----------------|---------------2-*|
|-(2)----3-2-0---|--------------5-|-(5)------------|-----------0---2-*|
|-(0)----------3-|-(3)----0-2-3---|----------------|-----0-2-3---0-0-*|
|----------------|----------------|-------1-(1)----|-1-3-------------*|


Duration Legend
---------------
W - whole; H - half; Q - quarter; E - 8th; S - 16th; T - 32nd; X - 64th; a - acciaccatura
+ - note tied to previous; . - note dotted; .. - note double dotted
Uncapitalized letters represent notes that are staccato (1/2 duration)
Irregular groupings are notated above the duration line
Duration letters will always appear directly above the note/fret number it represents the
duration for.  Duration letters with no fret number below them represent rests.  Multi-
bar rests are notated in the form Wxn, where n is the number of bars to rest for.  Low
melody durations appear below the staff

Tablature Legend
----------------
 h   - hammer-on
 p   - pull-off
 b   - bend
 pb  - pre-bend
 r   - bend release (if no number after the r, then release immediately)
 /\  - slide into or out of (from/to "nowhere")
 s   - legato slide
 S   - shift slide
  - natural harmonic
[n]  - artificial harmonic
n(n) - tapped harmonic
 ~   - vibrato
 tr  - trill
 T   - tap
 TP  - trem. picking
 PM  - palm muting
\n/  - tremolo bar dip; n = amount to dip
 \n  - tremolo bar down
 n/  - tremolo bar up
/n\  - tremolo bar inverted dip
 =   - hold bend; also acts as connecting device for hammers/pulls
 <>  - volume swell (louder/softer)
 x   - on rhythm slash represents muted slash
 o   - on rhythm slash represents single note slash

Misc Legend
-----------
 |  - bar
||  - double bar
||o - repeat start
o|| - repeat end
*|  - double bar (ending)
 :  - bar (freetime)
 $  - Segno
 &  - Coda
Tempo markers -  = BPM(8/16=s8/s16), where s8 = swing 8ths, s16 = swing 16ths
comments
print report bad tab
12 comments total. Showing first comments.
0 reply
*Dangling Nads* wrote on July 3 2005, 12:00 am

Great Tab!

0 reply
Enemy Of God wrote on July 5 2005, 12:00 am

YES!

0 reply
MetalGuitarGirl wrote on November 17 2005, 05:52 pm

YAY!! FINALLY, A 100% CORRECT "DEADLY SINNERS" TAB!!! :D

I want to post or [tab]
guest
You may want to rate the tab now too:
select rating
Please do not post tabs as comments. Select "correction" instead!