Oops, an error
Loading. Please wait.

Forest King Tab

ver2
ver2

Whole song

Interactive

More versions @911Tabs.com
5,137 views 3 this week
4 commentsread comments
1 2 3 4 5
excellent!
x 3
Autoscroll
+/-
esc
set tempo
stop
Contributor
Hey! There's an official Ultimate Guitar app which is ideal
for learning songs when you're away from computer. Get the app
WARNING: You are trying to view
                                    content from Ultimate-Guitar.com
                                    in an unauthorized application,
                                    which is prohibited.

                                    Please use an official Ultimate
                                    Guitar Tabs application for iPhone,
                                    iPad or Android to access legitimate
                                    chords, guitar, bass, and drum tabs
                                    from Ultimate-Guitar.com database.

                                    Type "ultimate guitar tabs" in Apple
                                    App Store's or Android Market's
                                    search to find the application.
Band;3 inches of Blood
song;forest king
album;fire up the blades
email:superdeathpidgeons@hotmail.com

.=palm mute
h=hammer on
b=bend
<=swell with volume knob
(3x)=play note above or to the left of this symbol as a triplet
or whatever amount is specified.(2x)(5x)(4x)and so on.
This is just so G.2 And G.1 Will match up and to save some space.

Standard tuning

Figure.1 played once
  g.2
e|--------------------------------------------------------------------------|
B|--------------------------------------------------------------------------|
G|--------------------------------------------------------------------------|
D|-----10-----10---10----8--------------------------------------------------|
A|-8--8--11-11--8-8--11---10------------------------------------------------|
E|--------------------------11----------------------------------------------|

figure.2 played twice
  g.1
e|---------------------------------------------------------------------------|
B|---------------------------------------------------------------------------|
G|--------..--..--------..-------------..--..--------..----------------------|
D|-7/10-10--10---7-10-10---8-8-7/10-10--10---7-10-10---8-8-------------------|
A|-5/8--8-888-88-5/8--8-88-6-6-5/8--8-888-88-5/8--8-88-6-6-------------------|
E|---------------------------------------------------------------------------|
 |g.2
e|--------------------------------------------------------------------------|
B|--------------------------------------------------------------------------|
G|--------------------------------------------------------------------------|
D|-----10-----10---10---8----------10-----10---10---8-----------------------|
A|-8--8--11-11--8-8--11--10----8--8--11-11--8-8--11--10---------------------|
E|-------------------------11--------------------------11-------------------|

  g.1
e|--------------------------------------------------------------------------|
B|--------------------------------------------------------------------------|
G|------..---..------..---------..................--------------------------|
D|-6--6----6----6--6----8---------------------------------------------------|
A|-4--4-44-4-44-4--4-44-6-4---8-----------------68--6-6---------------------|
E|--------------------------6-6-666-666-666-668-----4-4---------------------|
 |g.2
e|---------------------------------------------------------------------------|
B|------------------------------..............-------------------------------|
G|----------------------------------------------810-8-8----------------------|
D|-----11-----11---11---8-----8-888-888-888-8810----6-6----------------------|
A|-8--8--11-11--8-8--11--10--------------------------------------------------|
E|-------------------------11------------------------------------------------|

Fig.3 played twice
  g.1
e|---------------------------------------------------------------------------|
B|---------------------------------------------------------------------------|
G|---------------------------------------------------------------------------|
D|------10-----10----10---8-----------10-----10----10---8--------------------|
A|-8---8--11-11--8--8--11---10---8---8--11-11--8--8--11---10-----------------|
E|----------------------------11----------------------------11---------------|
 |g.2
e|---------------------------------------------------------------------------|
B|---------------------------------------------------------------------------|
G|-------8-----8------8----------------8-----8------8------------------------|
D|--------10-10--------10-11-108--------10-10--------10-11-108---------------|
A|-11--11--------11-11-----------11--11--------11-11-------------------------|
E|---------------------------------------------------------------------------|

  G.1
e|---------------------------------------------------------------------------|
B|--------------------------------------..............-----------------------|
G|-------------------------------------------------------8--108--8-----------|
D|-------10-----10-----10---8--------8--888-888-888-8810------6--6-----------|
A|-8---8---11-11--8--8---11----10--------------------------------------------|
E|--------------------------------11-----------------------------------------|
 |g.2
e|---------------------------------------------------------------------------|
B|--------------------------------------..............-----------------------|
G|-------10-----10-----10-----------------------------10-12-13---------------|
D|---------11-11---------11-13-11-10-11-11--11--11--11--------13-13----------|
A|-11--11---------11-11----------------(3x)(3x)(3x)(2X)----------------------|
E|---------------------------------------------------------------------------|

fig.4 played once
  G.1
e|--------------------------------------------------------------------------|
B|--------------------------------------------------------------------------|
G|--------------------------------------------------------------------------|
D|-------5-5--6-------------------------------------------------------------|
A|--3-3--3-3--4-------------------------------------------------------------|
E|--1-1---------------------------------------------------------------------|
 |g.2
e|--------------------------------------------------------------------------|
B|--------------------------------------------------------------------------|
G|--------------------------------------------------------------------------|
D|-------8-8--6-------------------------------------------------------------|
A|--3-3--6-6----------------------------------------------------------------|
E|--1-1---------------------------------------------------------------------|

fig.5 played twice with appropriate end
  g.1+2                                                                end 1
e|--------------------------------------------------------------------|-----|
B|--------------------------------------------------------------------|-----|
G|---.............---.............-----..---..-----..-------..........|-----|
D|---------------------------------6-6----6----8-8------6-------------|---6-|
A|-3------------13-3------------13-4-4-44-4-44-6-6-66-6---3-----------|-6---|
E|-1-11111111114---1-11111111114--------------------------1-1111111111|-----|

  g.1 end 2   g.2 end 2
e|----------|---------------------------------------------------------------|
B|----------|---------------------------------------------------------------|
G|----------|---------------------------------------------------------------|
D|----------|-8--10---------------------------------------------------------|
A|-1--3-----|---------------------------------------------------------------|
E|----------|---------------------------------------------------------------|

fig.6 played once
  g.1+2
e|---------------------------------------------------------------------------|
B|---------------------------------------------------------------------------|
G|----------......----------------......-------------------------------------|
D|-6--6-5------------3-5-6--6-5---------31-3-5-6--6-5------------------------|
A|-4--3-3-3----------1-3-4--3-3-3----------1-3-4--3-3------------------------|
E|--------1-11111143------------1-111111-------------------------------------|

fig.6b played once
   g.1
e|---------------------------------------------------------------------------|
B|---------------------------------------------------------------------------|
G|---------------------------------------------------------------------------|
D|------10-----10----10---8--------------------------------------------------|
A|-8---8--11-11--8--8--11---10---8\------------------------------------------|
E|----------------------------11---------------------------------------------|
 |g.2
e|---------------------------------------------------------------------------|
B|---------------------------------------------------------------------------|
G|-------8-----8------8------------------------------------------------------|
D|--------10-10--------10-11-108---------------------------------------------|
A|-11--11--------11-11-----------11\-----------------------------------------|
E|---------------------------------------------------------------------------|

fig.7 Played twice with appreopriate ends.
  g.1
e|--------------------------------------------------------------------------|
B|--------------------------------------------------------------------------|
G|-..............--------..............-------..--..------------------------|
D|---------------------------------------6--6---6----8\---------------------|
A|-------------13--3--3--------------13--4--4-444-44-6\---------------------|
E|-11111111114-----1--1--11111111114----------------------------------------|
 |G.2
e|--------------------------------------------------------------------------|
B|-...............-------...............------..--..------------------------|
G|---------------------------------------10-10--10--------------------------|
D|-------------810-10-10-------------810------------------------------------|
A|-888888888811----8--8--888888888811---------88--88-10\--------------------|
E|--------------------------------------------------------------------------|

  g.1
e|------------------|-------|-----------------------------------------------|
B|------------------|-------|-----------------------------------------------|
G|--------..........|-------|-----------------------------------------------|
D|----6-------------|---6---|-----------------------------------------------|
A|-6----3-----------|-6---3-|-1-3-------------------------------------------|
E|------1-1111111111|-----1-|-----------------------------------------------|
 |g.2                end 1   end 2
e|------------------|-------|-----------------------------------------------|
B|------------------|-------|-----------------------------------------------|
G|--------..........|---8---|-----------------------------------------------|
D|----8-6-----------|-8---10|-8-10------------------------------------------|
A|-10-----8888888888|-----8-|-----------------------------------------------|
E|------------------|-------|-----------------------------------------------|

fig.8 played once
  g.1+2
e|--------------------------------------------------------------------------|
B|--------------------------------------------------------------------------|
G|----------......----------------......----------------......--------------|
D|-6--6-5------------3-5-6--6-5---------31-3-5-6--6-5------------3-5-6--6-5-|
A|-4--3-3-3----------1-3-4--3-3-3----------1-3-4--3-3-3----------1-3-4--3-3-|
E|--------1-11111143------------1-111111--------------1-11111143------------|

fig.9 played twice
  g.1
e|---------------------------------------------------------------------------|
B|---------------------------------------------------------------------------|
G|---------------------------------------------------------------------------|
D|--------------------------------8------------------------------------6-----|
A|8-11-10-11-8-11-10-11-8-11-10-11-11-108-6-10-8-10-6-10-8-10-6-10-8-10-1086-|
E|---------------------------------------------------------------------------|
 |g.2
e|---------------------------------------------------------------------------|
B|---------------------------------------------------------------------------|
G|--------------------------------6------------------------------------5-----|
D|6-10-8--10-6-10-8--10-6-10-8--10-10-8-6-5-8--6-8--5-8--6-8--5-8--6-8--8-65-|
A|---------------------------------------------------------------------------|
E|---------------------------------------------------------------------------|

  g.1
e|---------------------------------------------------------------------------|
B|---------------------------------------------------------------------------|
G|---------------------------------------------------------------------------|
D|-----------------------------6-------------------------------------8-------|
A|6-10-8-10-6-10-8-10-6-10-8-10-1086-8-11-10-11-8-11-10-11-8-11-10-11-11-108-|
E|---------------------------------------------------------------------------|
 |g.2
e|---------------------------------------------------------------------------|
B|---------------------------------------------------------------------------|
G|-----------------------------5-------------------------------------6-------|
D|5-8--6-8--5-8--6-8--5-8--6-8--8-65-6-10-8--10-6-10-8--10-6-10-8--10-10-8-6-|
A|---------------------------------------------------------------------------|
E|---------------------------------------------------------------------------|

fig.10 played twice
  g.1
e|--------------------------------------------------------------------------|
B|--------------------------------------------------------------------------|
G|--------------------------------------------------------------------------|
D|-10------------------------8----------------------------------------------|
A|-8-------------------------6-------------------------8--------------------|
E|-----------------------------------------------------6--------------------|
 |g.2
e|--------------------------------------------------------------------------|
B|--------------------------------------------------------------------------|
G|------------------------------------------------10-8-10-------------------|
D|--------10-8-10-11-10-8-----------------8-10-11---------------------------|
A|-11---------------------11-10-----10-11-----------------------------------|
E|--------------------------------------------------------------------------|

  g.1
e|---------------------------------------------------------------------------|
B|---------------------------------------------------------------------------|
G|-6--5-6--8--6--5----6--5-------5-------------------------------------------|
D|-----------------8-------8--6----8--6--5----5----5-------------------------|
A|-----------------------------------------8----6----------------------------|
E|---------------------------------------------------------------------------|
 |g.2
e|--------------------------------------------------------------------------|
B|--------------------------------------------------------------------------|
G|-10-8-10-11-10-8----10-8-------8------------------------------------------|
D|-----------------11------11-10---11-10-8----8-----------------------------|
A|-----------------------------------------10------10-----------------------|
E|----------------------------------------------11--------------------------|

fig.11 played once
  G.1
e|--------------------------------------------------------------------------|
B|--------------------------------------------------------------------------|
G|-........................................................................-
D|--------------------------------------------------------------------------|
A|-888888888888888888888888666666666666666666666666-------------------------|
E|-------------------------------------------------666666666666666666666666-|
 |g.2
e|--------------------------------------------------------------------------
B|-........................................................................-
G|--------------------------------------------------------------------------|
D|-666666666666666666666666555555555555555555-------------------------------|
A|-------------------------------------------888666444444444444444444444444-|
E|--------------------------------------------------------------------------|

  g.1
e|--------------------------------------------------------------------------|
B|--------------------------------------------------------------------------|
G|--------------------------------------------------------------------------|
D|-........................-------------------------------------------------|
A|--------------------------------------------------------------------------|
E|-444444444444333333333333-------------------------------------------------|
 |g.2
e|--------------------------------------------------------------------------|
B|--------------------------------------------------------------------------|
G|-........................-------------------------------------------------|
D|--------------------------------------------------------------------------|
A|-666666666666666666666666-------------------------------------------------|
E|--------------------------------------------------------------------------|

fig.12 played once
  g.1
e|--------------------------------------------------------------------------|
B|--------------------------------------------------------------------------|
G|--...--...--...--...-...-...-...-...-...-...-...-...----------------------|
D|10---10---10---10---8---8---8---8-----------------------------------------|
A|--888--888--888--888-666-666-666-6668---8---8---8-------------------------|
E|-------------------------------------666-666-666-666----------------------|
 |g.2
e|--------------------------------------------------------------------------|
B|--...--...--...--...-...-...-...-...-...-...-...-...----------------------|
G|8----8----8----8----8---8---8---8---6---6---6---6-------------------------|
D|--666--666--666--666-888-888-888-888-888-888-888-888----------------------|
A|--------------------------------------------------------------------------|
E|--------------------------------------------------------------------------|

  g.1
e|--------------------------------------------------------------------------|
B|--------------------------------------------------------------------------|
G|--...-...-...-...---------------------------------------------------------|
D|--------------------------------------------------------------------------|
A|-6---6---3---3----3-----/8\-----------------------------------------------|
E|--444-444-333-333-1-------------------------------------------------------|
 |g.2
e|--------------------------------------------------------------------------|
B|--...-...-...-...---------------------------------------------------------|
G|-8---8---8---8------------------------------------------------------------|
D|--666-666-555-555-6-------------------------------------------------------|
A|-------------------------11\----------------------------------------------|
E|--------------------------------------------------------------------------|

fig.13 played once
  g.1
e|---------------------------------------------------------------------------|
B|----------------------11b-9---/9------------11b-11b--9---------------------|
G|-10<-----\1/10---8108------10-----10--8108-------------10------------------|
D|---------------------------------------------------------------------------|
A|---------------------------------------------------------------------------|
E|---------------------------------------------------------------------------|
 |g.2
e|--------------------------------------------------------------------------|
B|--------------------------------------------------------------------------|
G|----------------------10--8-----------------10--10b--8--------------------|
D|-----------------8108------10---------8108-------------10-----------------|
A|-8<---------11--------------------8---------------------------------------|
E|--------------------------------------------------------------------------|

fig.14 Played twice with apt. end
  g.1                                                   end 1
e|-----------------------------------------------------|--------------------|
B|16-13--16-13--16-13-16---16-13--16-13---16-13-16b-16b|--------------------|
G|-----15-----15----------------15-----15--------------|13-10--13-12--12-10-|
D|-----------------------------------------------------|------------13------|
A|-----------------------------------------------------|--------------------|
E|-----------------------------------------------------|--------------------|
 |g.2                                                   end 1
e|-----------------------------------------------------|--------------------|
B|-----------------------------------------------------|--------------------|
G|13-10--13-10--13-10-13---15-13--15-13---15-16-15b-15b|13-----13-12--12-13-|
D|-----13-----13----------------15-----15--------------|---15-------13------|
A|-----------------------------------------------------|--------------------|
E|-----------------------------------------------------|--------------------|

  g.1 end 2
e|-----------------------------------------------------------------------------|
B|----16h18~~~~18~~~~~---------------------------------------------------------|
G|------------(24x)--------------------------------------------------------D|--|
A|-----------------------------------------------------------------------------|
E|-----------------------------------------------------------------------------|
 |g.2 end 2
e|--------------------------------------------------------------------------|
B|--------------------------------------------------------------------------|
G|-13h15/17----17-----------------------------------------------------------|
D|------------(24x)---------------------------------------------------------|
A|--------------------------------------------------------------------------|
E|--------------------------------------------------------------------------|

fig.15 played twice
  g.1
e|--------------------------------------------------------------------------|
B|--------------------------------------------------------------------------|
G|.....---....---........--....--........--.....-.......-...-.....--....--.-|
D|------6------6--------------------------5-----5------------------5-----5--|
A|8---8---8--8---8--------6-----6---6---6--6--6--6------4---4-6--6--6--6--6-|
E|------------------8---8--8--8--8------------------6--6-6-6-6--------------|
 |g.2
e|----------------------------------------------------------------------------|
B|......--.....---------------------------------------------------------------|
G|------------------------8-----8---------------------------------------------|
D|------10-----10-------------------------8-----8------------------8-----8----|
A|11--11--11-11--11-10--10-10-10-10-10--10-10-10-10-----8---8-10-10-10-10-10--|
E|--------------------------------------------------9--9-9-9-9----------------|

  g.1
e|--------------------------------------------------------------------------|
B|--------------------------------------------------------------------------|
G|-....-....-........---....---.--------------------------------------------|
D|--------------------6------6----------------------------------------------|
A|-----6----6---8---8---8--8---8--6888886888886888--------------------------|
E|-8--8--8-8--8-------------------------------------------------------------|
 |g.2
e|--------------------------------------------------------------------------|
B|--------------------------------------------------------------------------|
G|-....--...--........--.....--..-------------------------------------------|
D|-----10---10--------10-----10---810---810---810---------------------------|
A|--------------11--11--11-11--11--(5x)--(5x)--(3x)-------------------------|
E|-9--9--9-9--9-------------------------------------------------------------|

g.1
e|--------------------------------------------------------------------------|
B|--------------------------------------------------------------------------|
G|.....---....---........--....--........--.....-.......-...-.....--....--.-|
D|------6------6--------------------------5-----5------------------5-----5--|
A|8---8---8--8---8--------6-----6---6---6--6--6--6------4---4-6--6--6--6--6-|
E|------------------8---8--8--8--8------------------6--6-6-6-6--------------|
 |g.2
e|----------------------------------------------------------------------------|
B|......--.....---------------------------------------------------------------|
G|------------------------8-----8---------------------------------------------|
D|------10-----10-------------------------8-----8------------------8-----8----|
A|11--11--11-11--11-10--10-10-10-10-10--10-10-10-10-----8---8-10-10-10-10-10--|
E|--------------------------------------------------9--9-9-9-9----------------|

  g.1
e|--------------------------------------------------------------------------|
B|--------------------------------------------------------------------------|
G|--------------------------------------------------------------------------|
D|--------------------------------------------------------------------------|
A|-----6----6---68888868888868888868888688688-------------------------------|
E|-8--8--8-8--8-------------------------------------------------------------|
 |g.2
e|--------------------------------------------------------------------------|
B|--------------------------------------------------------------------------|
G|--------------------------------------------------------------------------|
D|-----10---10--810---810---810---810--8101081010---------------------------|
A|---------------(5x)--(5x)--(5x)--(4x)-------------------------------------|
E|-9--9--9-9--9-------------------------------------------------------------|

then play fig.8,fig.3,fig.4,fig.6b
and were done hallelujah.
comments
We did not receive enough feedback on this tab! Please rate:
print report bad tab
1 2 3 4 5
4 comments total. Showing first comments.
0 reply
deathpidgeon wrote on November 30 2007, 09:21 pm

On the first bar of fig.2 some palm mute symbols are out of place,
and on the 2nd,6th,7th, and 8th bars of fig.15 I
completely forgot some palm mute symbols cause I was late for the bus.
But I give you a BitchSlap-Garauntee all the
notes are correct.

0 reply
deathpidgeon wrote on December 3 2007, 07:03 pm

its bitch-slappin time, found a mistake. corrections in brackets
this is Fig.5 by the
way
G|---.............---.............-
D|---------------------------------
A|-3------------13-3------------13-
E|-1
-11111111114---1-11111111114---

G|----..---..-----..-------..........|-----|
D|6-6----6----8-8-----(5)------------|-
-(0)|
A|4-4-44-4-44-6-6-66-6---3-----------|(1)--|
E|-----------------------1-1111111111|-----|
same Idea with
fig.7
g.1
e|------------------|-------|------------------
B|------------------|-------|----------------
G|--------..
........|-------|--------------
D|---(5)------------|--(0)--|---------------------
A|-6----3-----------|(1)--3-|-1-3--
-------------
E|------1-1111111111|-----1-|------------------------
|g.2 end 1 end
2
e|------------------|-------|--------------------
B|------------------|-------|--------------
G|--------..........|
--(7)--|------------------
D|----8-6-----------|-8---10|-8-10-------------------
A|-10-----8888888888|-----8-|--------
--------------
E|------------------|-------|---------------------

0 reply
deathpidgeon wrote on December 3 2007, 07:05 pm

fekkin computer

I want to post or [tab]
guest
You may want to rate the tab now too:
select rating
Please do not post tabs as comments. Select "correction" instead!