Oops, an error
Loading. Please wait.

Premonition Of Pain Tab

ver1
ver1

Whole song

Interactive

More versions @911Tabs.com
609 views 1 this week
1 commentread comment
1 2 3 4 5
excellent!
x 2
Autoscroll
+/-
esc
set tempo
stop
Contributor
Difficulty
intermediate
Hey! There's an official Ultimate Guitar app which is ideal
for learning songs when you're away from computer. Get the app
WARNING: You are trying to view
                                    content from Ultimate-Guitar.com
                                    in an unauthorized application,
                                    which is prohibited.

                                    Please use an official Ultimate
                                    Guitar Tabs application for iPhone,
                                    iPad or Android to access legitimate
                                    chords, guitar, bass, and drum tabs
                                    from Ultimate-Guitar.com database.

                                    Type "ultimate guitar tabs" in Apple
                                    App Store's or Android Market's
                                    search to find the application.
3 INCHES OF BLOOD
PREMONITION OF PAIN
EADGBE

*=PALM MUTE

TABBED BY andherembrace

tab includes whole song w/both gtrs

O:00
L
---------------------------------------------------------------|
---------------------------------------------------------------|
---------------------------------------------------------------|
-2------------------------2-****-2-****------------------------|
-0|------------3-2-****-5-0-0000-0-0000-33333333---------------|
---------------1-0-1111-3------------------------33333333------|
R
---------------------------------------------------------------|
------------------------------------------------_--------------|
------------------------------------------_----/ \----------_--|
-2-****-2-****------------2-****-2-****--/ \--3-5-7---_----/ \-|
-0-0000-0-0000-3-2-****-5-0-0000-0-0000-3-5-7--------/ \--3-5-7|
---------------1-0-1111-3---------------------------3-5-7------|


L
---------------------------------------------------------------|
---------------------------------------------------------------|
---------------------------------------------------------------|
-2-****-2-****------------2-****-2-****------------------------|
-0-0000-0-0000-3-2-****-5-0-0000-0-0000-33333333---------------|
---------------1-0-1111-3------------------------33333333------|
R
---------------------------------------------------------------|
------------------------------------------------_--------------|
------------------------------------------_----/ \----------_--|
-2-****-2-****------------2-****-2-****--/ \--3-5-7---_----/ \-|
-0-0000-0-0000-3-2-****-5-0-0000-0-0000-3-5-7--------/ \--3-5-7|
---------------1-0-1111-3---------------------------3-5-7------|


L
---------------------------------------------------------------|
---------------------------------------------------------------|
---------------------------------------------------------------|
-2-****-2-****------------2-****-2-****------------------------|
-0-0000-0-0000-3-2-****-5-0-0000-0-0000-33333333---------------|
---------------1-0-1111-3------------------------33333333------|
R
---------------------------------------------------------------|
------------------------------------------------_--------------|
------------------------------------------_----/ \----------_--|
-2-****-2-****------------2-****-2-****--/ \--3-5-7---_----/ \-|
-0-0000-0-0000-3-2-****-5-0-0000-0-0000-3-5-7--------/ \--3-5-7|
---------------1-0-1111-3---------------------------3-5-7------|


L
------------------------------------------------------------------|
------------------------------------------------------------------|
------------------------------------------------------------------|
-2-****-2-****------------2-****-2-****-5----------------4--------|
-0-0000-0-0000-3-2-****-5-0-0000-0-0000-3|------5--------2|--3----|
---------------1-0-1111-3-----------------------3|-----------1/---|
R
---------------------------------------------------------------------|
---------------------------------------------------------------------|
---------------------------------------------^---------------------^-|
-2-****-2-****------------2-****-2-****--^--357------^---^------^-235|
-0-0000-0-0000-3-2-****-5-0-0000-0-0000-357------^--357-235--^-235---|
---------------1-0-1111-3-----------------------357---------235------|

0:19
B
----------------------------------------------|
-------------------^----------------------^---|
----5---4-----5---4-5-***-4-*-2------4---2-4--|
***---*---***---*-----333---3--***-*---*------|
000---0---000---0--------------333-3---3------|
----------------------------------------------|

B
----------------------------------------------|
-------------------^----------------------^---|
----5---4-----5---4-5-***-4-*-2------4---2-4--|
***---*---***---*-----333---3--***-*---*------|
000---0---000---0--------------333-3---3------|
----------------------------------------------|

0:26
L
----------------------------------------------|
-------------------^----------------------^---|
----5---4-----5---4-5-***-4-*-2------4---2-4--|
***---*---***---*-----333---3--***-*---*------|
000---0---000---0--------------333-3---3------|
----------------------------------------------|
R
------------------^---------------------------|
---5---3-----5---3-5---------------------^----|
---------------------***-7-*-5------7---5-7---|
***--*---***---*-----333---3--***-*---*-------|
000--0---000---0--------------333-3---3-------|
----------------------------------------------|

L
----------------------------------------------|
--------------------^----------------------^--|
-----7---5-----7---5-7-***-5-*-4------4---2-4-|
-***---*---***---*-----333---3--***-*---*-----|
-000---0---000---0--------------333-3---3-----|
----------------------------------------------|
R
--------------------^-------------------------|
-----6---5-----6---5-6-----5---3-----------^--|
-----------------------***---*--------7---5-7-|
-***---*---***---*-----333---3--***-*---*-----|
-000---0---000---0--------------333-3---3-----|
----------------------------------------------|

0:34
B
--------------------------------------------------|
----------------------------------^---------------|
----------^-----------^------4---2-4----------^---|
-----7---5-7-----3---2-3-***---*---------5---4-5--|
-***---*-----***---*-----333---3-----***---*------|
-555---5-----111---1-----------------333---3------|


--------------------------------------------------|
----------------------------------^---------------|
----------^-----------^------4---2-4----------^---|
-----7---5-7-----3---2-3-***---*---------5---4-5--|
-***---*-----***---*-----333---3-----***---*------|
-555---5-----111---1-----------------333---3------|


--------------------------------------------------|
----------------------------------^---------------|
----------^-----------^------4---2-4----------^---|
-----7---5-7-----3---2-3-***---*---------5---4-5--|
-***---*-----***---*-----333---3-----***---*------|
-555---5-----111---1-----------------333---3------|


L
--------------------------------------------------|
----------------------------------^---------------|
----------^-----------^------4---2-4--------------|
-----7---5-7-----3---2-3-***---*-----------*-*-*--|
-***---*-----***---*-----333---3-----*-*-*-2-3-5--|
-555---5-----111---1-----------------2-3-5--------|
R
---------------------------------------------------|
----------------------------------^----------------|
----------^-----------^------4---2-4--------*--*--*|
-----7---5-7-----3---2-3-***---*-----*--*-*-9-10-12|
-***---*-----***---*-----333---3-----9-10-12-------|
-555---5-----111---1-------------------------------|


0:49
L
------------------------------------------|
------------------------------------------|
------------------------------------------|
-2---*----------5-5-----------------------|
-0---0--3-3--*--3-3---------------0000-33-|
--------1-1--1----------1111-3333---------|
R
-------__--------__-------------------------__------|
------/  \------/  \----------------__-----/  \-----|
-9--12-10-9---12-10-9---12---__----/  \---9-10-12-12|
---------------------12-----/  \--9-10-12-----------|
---------------------------9-10-12------------------|
----------------------------------------------------|


L
------------------------------------------|
------------------------------------------|
------------------------------------------|
-2---*----------5-5-----------------------|
-0---0--3-3--*--3-3---------------0000-33-|
--------1-1--1----------1111-3333---------|
R                                           __
-------__--------__------------------__----/  \-----|
------/  \------/  \---------__-----/  \--9-10-12-12|
-9--12-10-9---12-10-9---12--/  \--9-10-12-----------|
-----------12--------10----9-10-12------------------|
----------------------------------------------------|
----------------------------------------------------|

L
------------------------------------------|
------------------------------------------|
------------------------------------------|
-2---*----------5-5-----------------------|
-0---0--3-3--*--3-3---------------0000-33-|
--------1-1--1----------1111-3333---------|
R
-------__--------__-------------------------__------|
------/  \------/  \----------------__-----/  \-----|
-9--12-10-9---12-10-9---12---__----/  \---9-10-12-12|
---------------------12-----/  \--9-10-12-----------|
---------------------------9-10-12------------------|
----------------------------------------------------|


L
------------------------------------------|
------------------------------------------|
------------------------------------------|
-2---*----------5-5-----------------------|
-0---0--3-3--*--3-3---------------0000-33-|
--------1-1--1----------1111-3333---------|
R                                           __
-------__--------__------------------__----/  \-----|
------/  \------/  \---------__-----/  \--9-10-12-12|
-9--12-10-9---12-10-9---12--/  \--9-10-12-----------|
-----------12--------10----9-10-12------------------|
----------------------------------------------------|
----------------------------------------------------|

1:08
B
---------------------------------------------------------------|
---------------------------------------------------------------|
-*-*-2-*-2-*-*-0-*-2-*-*-5-4-2-*-*-2-*-2-*-*-0-*-2-*-5-*-4-----|
-0-0---0---0-0---0---0-0-------0-0---0---0-0---0---0---0-------|
---------------------------------------------------------------|
---------------------------------------------------------------|

L
---------------------------------------------------------------|
------------------------------------------------------------PH-|
-----9---9-----7---9-----12-11-9-----9---9----7----9---12---11-|
-*-*---*---*-*---*---*-*---------*-*---*---*-*---*---*----*----|
-0-0---0---0-0---0---0-0---------0-0---0---0-0---0---0----0----|
---------------------------------------------------------------|
R
---------------------------------------------------------------|
---------------------------------------------------------------|
-----2---2-----0---2-----5-4-2-----2---2-----0---2---5---4-----|
-*-*---*---*-*---*---*-*-------*-*---*---*-*---*---*---*-------|
-0-0---0---0-0---0---0-0-------0-0---0---0-0---0---0---0-------|
---------------------------------------------------------------|

L
---------------------------------------------------------------|
-------------------------1---------------------------1---------|
-----2---2-----0---2-------4-2-----2---2-----0---2------4------|
---------------------------------------------------------------|
-*-*---*---*-*---*---*-*-------*-*---*---*-*---*---*--*--------|
-1-1---1---1-1---1---1-1-------1-1---1---1-1---1---1--1--------|
R
---------------------------------------------------------------|
---------------------------------------------------------------|
-------------------------0--------------------------0----------|
-----3---3-----2---3-------3-2-----3---3-----2---3------3------|
-*-*---*---*-*---*---*-*-------*-*---*---*-*---*---*--*--------|
-1-1---1---1-1---1---1-1-------1-1---1---1-1---1---1--1--------|


B
---------------------------------------------------------------|
---------------------------------------------------------------|
-*-*-2-*-2-*-*-0-*-2-*-*-5-4-2-*-*-2-*-2-*-*-0-*-2-*-5-*-4-----|
-0-0---0---0-0---0---0-0-------0-0---0---0-0---0---0---0-------|
---------------------------------------------------------------|
---------------------------------------------------------------|


1:28
L
------------------------------------------------------------------------|
------------------------------------------------------------------------|
----------------------------------------------------------5-4-5-7-5-4---|
2-*************-22-*************-22-*************-22-*****-----------5-7|
0-0000000000000-00-0000000000000-00-0000000000000-00-00000--------------|
------------------------------------------------------------------------|
R
------------------------------------------------------------------------|
------------------------------------------------------------------------|
----------------------------------------------------------5-4-5-7-5-4-5-|
2-*************-22-*************-22-*************-22-*****-----------5--|
0-0000000000000-00-0000000000000-00-0000000000000-00-00000--------------|
------------------------------------------------------------------------|


L
----------------------------------------------------------------------|
----------------------------------------------------------------------|
---------------77-------------1010-------------1212-----5-4-5-7-5-4---|
2-*************XX*************-XX-*************-X-X*****-----------5-7|
0-0000000000000550000000000000-88-0000000000000101000000--------------|
----------------------------------------------------------------------|
R
-------------------------------------------------------------------------|
-------------------------------------------------------------------------|
----------------22------------------------------------------5-4-5-7-5-4-5|
2-*************----*************-33-*************-55-*****-------------5-|
0-0000000000000----0000000000000----0000000000000----00000---------------|
-------------------------------------------------------------------------|


L
----------------------------------------------------------------------|
----------------------------------------------------------------------|
---------------77-------------1010-------------1212-----5-4-5-7-5-4---|
2-*************XX*************-XX-*************-X-X*****-----------5-7|
0-0000000000000550000000000000-88-0000000000000101000000--------------|
----------------------------------------------------------------------|
R
-------------------------------------------------------------------------|
-------------------------------------------------------------------------|
----------------22------------------------------------------5-4-5-7-5-4-5|
2-*************----*************-33-*************-55-*****-------------5-|
0-0000000000000----0000000000000----0000000000000----00000---------------|
-------------------------------------------------------------------------|

L
-------------------------------|
-------------------------------|
-5-4-5-7-5-4-5-5-4-5-7-5-4-5---|
------------5-------------5----|
-------------------------------|
-------------------------------|
R
-------------------------------|
---------------8-7-8-10-8-7----|
-5-4-5-7-5-4-5--------------7--|
------------5------------------|
-------------------------------|
-------------------------------|

2:01
L
---------------------------------------------------------------|
---------------------------------------------------------------|
--9----9---7---7---5---5---7---7----9----9---7---7---5---5---7-|
-10-*-10-*-9-*-9-*-7-*-7-*-9-*-9-*-10-*-10-*-9-*-9-*-7-*-7-*-9/|
----0----0---0---0---0---0---0---0----0----0---0---0---0---0---|
---------------------------------------------------------------|
R
---------------------------------------------------------------|
---------------------------------------------------------------|
-5---5---4---4---2---2---4---4---5---5---4---4---2---2---------|
---*---*---*---*---*---*---*---*---*---*---*---*---*---*-------|
---0---0---0---0---0---0---0---0---0---0---0---0---0---0-5/----|
---------------------------------------------------------------|


L
---------------------------------------------------------------|
---------------------------------------------------------------|
--9----9---7---7---5---5---7---7----9----9---7---7---5---5---7-|
-10-*-10-*-9-*-9-*-7-*-7-*-9-*-9-*-10-*-10-*-9-*-9-*-7-*-7-*-9/|
----0----0---0---0---0---0---0---0----0----0---0---0---0---0---|
---------------------------------------------------------------|
R
---------------------------------------------------------------|
---------------------------------------------------------------|
-5---5---4---4---2---2---4---4---5---5---4---4---2---2---------|
---*---*---*---*---*---*---*---*---*---*---*---*---*---*-------|
---0---0---0---0---0---0---0---0---0---0---0---0---0---0--5/---|
---------------------------------------------------------------|

2:11
L
-------------------------------------------|
-------------------------------------------|
-------------------------------------------|
-14----------14----------10-----1010-12-12-|
-12--*-*-*-*-12--*-*-*-*-8--****-8-8-10-10-|
-12-12121212-12-12121212-8--8888-8-8-10-10-|
R
---------------------------------|
---------------------------------|
---------------------------------|
-2--****-2-****------------------|
-0--0000-0-0000-3-****-3-3-5-5---|
----------------1-1111-1-1-3-3---|

L
-------------------------------------------|
-------------------------------------------|
-------------------------------------------|
-14----------14----------10-----1010-12-12-|
-12--*-*-*-*-12--*-*-*-*-8--****-8-8-10-10-|
-12-12121212-12-12121212-8--8888-8-8-10-10-|
R
---------------------------------|
---------------------------------|
---------------------------------|
-2--****-2-****------------------|
-0--0000-0-0000-3-****-3-3-5-5---|
----------------1-1111-1-1-3-3---|

L
-------------------------------------------|
-------------------------------------------|
-------------------------------------------|
-14----------14----------10-----1010-12-12-|
-12--*-*-*-*-12--*-*-*-*-8--****-8-8-10-10-|
-12-12121212-12-12121212-8--8888-8-8-10-10-|
R
---------------------------------|
---------------------------------|
---------------------------------|
-2--****-2-****------------------|
-0--0000-0-0000-3-****-3-3-5-5---|
----------------1-1111-1-1-3-3---|


L
-------------------------------------------|
-------------------------------------------|
-------------------------------------------|
-14----------14----------10-----1010-12-12-|
-12--*-*-*-*-12--*-*-*-*-8--****-8-8-10-10-|
-12-12121212-12-12121212-8--8888-8-8-10-10-|
R
---------------------------------|
---------------------------------|
---------------------------------|
-2--****-2-****------------------|
-0--0000-0-0000-3-****-3-3-5-5---|
----------------1-1111-1-1-3-3---|


2:31
L
------------------------------------------------------|
------------------------------------------------------|
------------------------------------------------------|
------------------------------------------------------|
-7-**-7-**-7--7-**-7-**-7---3-**-3-**-3---5-**-5-**-5-|
-5-55-5-55-5--5-55-5-55-5-/-1-11-1-11-1-/-3-33-3-33-3-|
R
----------------------------------------------------------------------|
-------------------------------------------------------/\--/\--/\--/\-|
-/\---/\---/\---/\---/\---/\---/\---/\---/\--/\--/\--/\975-975-975-975|
1097-1097-1097-1097-1097-1097-1097-1097-975-975-975-975---------------|
----------------------------------------------------------------------|
----------------------------------------------------------------------|


L
------------------------------------------------------|
------------------------------------------------------|
------------------------------------------------------|
------------------------------------------------------|
-7-**-7-**-7--7-**-7-**-7---3-**-3-**-3---5-**-5-**-5-|
-5-55-5-55-5--5-55-5-55-5-/-1-11-1-11-1-/-3-33-3-33-3-|
R
----------------------------------------------------------------------|
-------------------------------------------------------/\--/\--/\--/\-|
-/\---/\---/\---/\---/\---/\---/\---/\---/\--/\--/\--/\975-975-975-975|
1097-1097-1097-1097-1097-1097-1097-1097-975-975-975-975---------------|
----------------------------------------------------------------------|
----------------------------------------------------------------------|

L
---------------------------------------------------|
---------------------------------------------------|
---------------------------------------------------|
---------------------------------------------------|
-3-**-3-**-3--3-**-3-**-3--2-**-2-**-2-5-**-5-**-5-|
-1-11-1-11-1--1-11-1-11-1--0-00-0-00-0-3-33-3-33-3-|
R
---------------------------------------------------------------|
---------------------------------------------------------------|
-/\--/\--/\--/\--/\--/\--/\--/\--/\--/\--/\--/\-4-5-4-0-4-0-2-4|
753-753-753-753-753-753-753-753-532-532-532-532----------------|
---------------------------------------------------------------|
---------------------------------------------------------------|

2:47
L
------------------------------------------------------|
------------------------------------------------------|
------------------------------------------------------|
------------------------------------------------------|
-7-**-7-**-7--7-**-7-**-7---3-**-3-**-3---5-**-5-**-5-|
-5-55-5-55-5--5-55-5-55-5-/-1-11-1-11-1-/-3-33-3-33-3-|
R
----------------------------------------------------------------|
----------------------------------------------------------------|
2222522242225222222252224222522200004000200040005555445522004400|
----------------------------------------------------------------|
----------------------------------------------------------------|
----------------------------------------------------------------|


L
------------------------------------------------------|
------------------------------------------------------|
------------------------------------------------------|
------------------------------------------------------|
-7-**-7-**-7--7-**-7-**-7---3-**-3-**-3---5-**-5-**-5-|
-5-55-5-55-5--5-55-5-55-5-/-1-11-1-11-1-/-3-33-3-33-3-|
R
----------------------------------------------------------------|
----------------------------------------------------------------|
222252224222522222225222422252220000400020004000555595557555999-|
----------------------------------------------------------------|
----------------------------------------------------------------|
----------------------------------------------------------------|


L
---------------------------------------------------|
---------------------------------------------------|
---------------------------------------------------|
---------------------------------------------------|
-3-**-3-**-3--3-**-3-**-3--2-**-2-**-2-5-**-5-**-5-|
-1-11-1-11-1--1-11-1-11-1--0-00-0-00-0-3-33-3-33-3-|
R
---------------------------------------------------------------|
---------------------------------------------------------------|
---------------------------------------------------------------|
3333733353337333333373335333733322225222322252225555955575559--|
---------------------------------------------------------------|
---------------------------------------------------------------|

3:01
B
----------------------------------------------|
-------------------^----------------------^---|
----5---4-----5---4-5-***-4-*-2------4---2-4--|
***---*---***---*-----333---3--***-*---*------|
000---0---000---0--------------333-3---3------|
----------------------------------------------|

B
----------------------------------------------|
-------------------^----------------------^---|
----5---4-----5---4-5-***-4-*-2------4---2-4--|
***---*---***---*-----333---3--***-*---*------|
000---0---000---0--------------333-3---3------|
----------------------------------------------|

L
----------------------------------------------|
-------------------^----------------------^---|
----5---4-----5---4-5-***-4-*-2------4---2-4--|
***---*---***---*-----333---3--***-*---*------|
000---0---000---0--------------333-3---3------|
----------------------------------------------|
R
------------------^---------------------------|
---5---3-----5---3-5---------------------^----|
---------------------***-7-*-5------7---5-7---|
***--*---***---*-----333---3--***-*---*-------|
000--0---000---0--------------333-3---3-------|
----------------------------------------------|

L
----------------------------------------------|
--------------------^----------------------^--|
-----7---5-----7---5-7-***-5-*-4------4---2-4-|
-***---*---***---*-----333---3--***-*---*-----|
-000---0---000---0--------------333-3---3-----|
----------------------------------------------|
R
--------------------^-------------------------|
-----6---5-----6---5-6-----5---3-----------^--|
-----------------------***---*--------7---5-7-|
-***---*---***---*-----333---3--***-*---*-----|
-000---0---000---0--------------333-3---3-----|
----------------------------------------------|

3:16
B
--------------------------------------------------|
----------------------------------^---------------|
----------^-----------^------4---2-4----------^---|
-----7---5-7-----3---2-3-***---*---------5---4-5--|
-***---*-----***---*-----333---3-----***---*------|
-555---5-----111---1-----------------333---3------|


--------------------------------------------------|
----------------------------------^---------------|
----------^-----------^------4---2-4----------^---|
-----7---5-7-----3---2-3-***---*---------5---4-5--|
-***---*-----***---*-----333---3-----***---*------|
-555---5-----111---1-----------------333---3------|


--------------------------------------------------|
----------------------------------^---------------|
----------^-----------^------4---2-4----------^---|
-----7---5-7-----3---2-3-***---*---------5---4-5--|
-***---*-----***---*-----333---3-----***---*------|
-555---5-----111---1-----------------333---3------|

L
---------------------------------------------------|
----------------------------------^----------------|
----------^-----------^------4---2-4---------------|
-----7---5-7-----3---2-3-***---*-----*--*--*9-10-12|
-***---*-----***---*-----333---3-----9-10-12-------|
-555---5-----111---1-------------------------------|
R
---------------------------------------------------|
----------------------------------^----------------|
----------^-----------^------4---2-4--*-*-*-4-5-7--|
-----7---5-7-----3---2-3-***---*------4-5-7--------|
-***---*-----***---*-----333---3-------------------|
-555---5-----111---1-------------------------------|

3:30
L
---------------------------------------------------------------|
---------------------------------------------------------------|
--9----9---7---7---5---5---7---7----9----9---7---7---5---5---7-|
-10-*-10-*-9-*-9-*-7-*-7-*-9-*-9-*-10-*-10-*-9-*-9-*-7-*-7-*-9/|
----0----0---0---0---0---0---0---0----0----0---0---0---0---0---|
---------------------------------------------------------------|
R
---------------------------------------------------------------|
---------------------------------------------------------------|
-5---5---4---4---2---2---4---4---5---5---4---4---2---2---------|
---*---*---*---*---*---*---*---*---*---*---*---*---*---*-------|
---0---0---0---0---0---0---0---0---0---0---0---0---0---0--5/---|
---------------------------------------------------------------|

L
---------------------------------------------------------------|
---------------------------------------------------------------|
--9----9---7---7---5---5---7---7----9----9---7---7---5---5---7-|
-10-*-10-*-9-*-9-*-7-*-7-*-9-*-9-*-10-*-10-*-9-*-9-*-7-*-7-*-9/|
----0----0---0---0---0---0---0---0----0----0---0---0---0---0---|
---------------------------------------------------------------|
R
---------------------------------------------------------------|
---------------------------------------------------------------|
-5---5---4---4---2---2---4---4---5---5---4---4---2---2---------|
---*---*---*---*---*---*---*---*---*---*---*---*---*---*-------|
---0---0---0---0---0---0---0---0---0---0---0---0---0---0--5/---|
---------------------------------------------------------------|


3:41
L
-------------------------------------------|
-------------------------------------------|
-------------------------------------------|
-14----------14----------10-----1010-12-12-|
-12--*-*-*-*-12--*-*-*-*-8--****-8-8-10-10-|
-12-12121212-12-12121212-8--8888-8-8-10-10-|
R
---------------------------------|
---------------------------------|
---------------------------------|
-2--****-2-****------------------|
-0--0000-0-0000-3-****-3-3-5-5---|
----------------1-1111-1-1-3-3---|

L
-------------------------------------------|
-------------------------------------------|
-------------------------------------------|
-14----------14----------10-----1010-12-12-|
-12--*-*-*-*-12--*-*-*-*-8--****-8-8-10-10-|
-12-12121212-12-12121212-8--8888-8-8-10-10-|
R
---------------------------------|
---------------------------------|
---------------------------------|
-2--****-2-****------------------|
-0--0000-0-0000-3-****-3-3-5-5---|
----------------1-1111-1-1-3-3---|


4:00
L
------------------------------------------------------|
------------------------------------------------------|
------------------------------------------------------|
------------------------------------------------------|
-7-**-7-**-7--7-**-7-**-7---3-**-3-**-3---5-**-5-**-5-|
-5-55-5-55-5--5-55-5-55-5-/-1-11-1-11-1-/-3-33-3-33-3-|
R
    __     ^      __       __       __     ^      __       
---/  \--10-12---/  \-----/  \-----/  \--10-12---/  \-----------|
-10-13-10------10-13-10-10-12-10-10-13-10------10-13-10-12\-----|
----------------------------------------------------------------|
----------------------------------------------------------------|
----------------------------------------------------------------|
----------------------------------------------------------------|

  __    ^     __     __     __    ^     __     __
-/  \--8-10--/  \---/  \---/  \--8-10--/  \---/  \--|
8-12-8------8-12-8-8-10-8-8-12-8------8-12-8-8-10-8-|
----------------------------------------------------|
----------------------------------------------------|
----------------------------------------------------|
----------------------------------------------------|


L
------------------------------------------------------|
------------------------------------------------------|
------------------------------------------------------|
------------------------------------------------------|
-7-**-7-**-7--7-**-7-**-7---3-**-3-**-3---5-**-5-**-5-|
-5-55-5-55-5--5-55-5-55-5-/-1-11-1-11-1-/-3-33-3-33-3-|
R
    __     ^      __       __       __     ^      __       
---/  \--10-12---/  \-----/  \-----/  \--10-12---/  \-----------|
-10-13-10------10-13-10-10-12-10-10-13-10------10-13-10--12/13--|
----------------------------------------------------------------|
----------------------------------------------------------------|
----------------------------------------------------------------|
----------------------------------------------------------------|

    __     ^     __       __      __    ^     __
---/  \--13-15--/  \-----/  \----/  \--8-10--/  \---^----------|
-13-17-13-----13-17-13-13-15-13-8-12-8------8-12-8-8-10--------|
---------------------------------------------------------------|
---------------------------------------------------------------|
---------------------------------------------------------------|
---------------------------------------------------------------|


4:10
L
------------------------------------------------------|
------------------------------------------------------|
------------------------------------------------------|
------------------------------------------------------|
-7-**-7-**-7--7-**-7-**-7---3-**-3-**-3---5-**-5-**-5-|
-5-55-5-55-5--5-55-5-55-5-/-1-11-1-11-1-/-3-33-3-33-3-|
R
    __     ^      __       __       __     ^      __       
---/  \--10-12---/  \-----/  \-----/  \--10-12---/  \-----------|
-10-13-10------10-13-10-10-12-10-10-13-10------10-13-10-12\-----|
----------------------------------------------------------------|
----------------------------------------------------------------|
----------------------------------------------------------------|
----------------------------------------------------------------|

  __    ^     __     __     __    ^     __     __
-/  \--8-10--/  \---/  \---/  \--8-10--/  \---/  \--|
8-12-8------8-12-8-8-10-8-8-12-8------8-12-8-8-10-8-|
----------------------------------------------------|
----------------------------------------------------|
----------------------------------------------------|
----------------------------------------------------|


L
------------------------------------------------------|
------------------------------------------------------|
------------------------------------------------------|
------------------------------------------------------|
-7-**-7-**-7--7-**-7-**-7---3-**-3-**-3---5-**-5-**-5-|
-5-55-5-55-5--5-55-5-55-5-/-1-11-1-11-1-/-3-33-3-33-3-|
R
    __     ^      __       __       __     ^      __       
---/  \--10-12---/  \-----/  \-----/  \--10-12---/  \-----------|
-10-13-10------10-13-10-10-12-10-10-13-10------10-13-10--12/13--|
----------------------------------------------------------------|
----------------------------------------------------------------|
----------------------------------------------------------------|
----------------------------------------------------------------|

    __     ^     __       __      __    ^     __
---/  \--13-15--/  \-----/  \----/  \--8-10--/  \---^----------|
-13-17-13-----13-17-13-13-15-13-8-12-8------8-12-8-8-10--------|
---------------------------------------------------------------|
---------------------------------------------------------------|
---------------------------------------------------------------|
---------------------------------------------------------------|

4:21
L
-------------------------------------------|
-------------------------------------------|
-------------------------------------------|
-14----------14----------10-----1010-12-12-|
-12--*-*-*-*-12--*-*-*-*-8--****-8-8-10-10-|
-12-12121212-12-12121212-8--8888-8-8-10-10-|
R
---------------------------------|
---------------------------------|
---------------------------------|
-2--****-2-****------------------|
-0--0000-0-0000-3-****-3-3-5-5---|
----------------1-1111-1-1-3-3---|

L
----------------------------------------------------|
----------------------------------------------------|
----------------------------------------------------|
-14----------14----------10-----101010-12-12-12-14--|
-12--*-*-*-*-12--*-*-*-*-8--****-8-8-8-10-10-10-12--|
-12-12121212-12-12121212-8--8888-8-8-8-10-10-10-12\-|
R
--------------------------------------|
--------------------------------------|
--------------------------------------|
-2--****-2-****-----------------------|
-0--0000-0-0000-3-****-3-3-3-5-5-5-7--|
----------------1-1111-1-1-1-3-3-3-5\-|
comments
We did not receive enough feedback on this tab! Please rate:
print report bad tab
1 2 3 4 5
1 comment total.
0 reply
spudoka wrote on March 15 2012, 01:13 am

I wish I could give this 6 stars!

I want to post or [tab]
guest
You may want to rate the tab now too:
select rating
Please do not post tabs as comments. Select "correction" instead!