Oops, an error
Loading. Please wait.

The Hydras Teeth Tab

4,006 views 3 this week
5 commentsread comments
1 2 3 4 5
excellent!
x 8
Autoscroll
+/-
esc
set tempo
stop
Contributor
Difficulty
advanced
WARNING: You are trying to view
                                    content from Ultimate-Guitar.com
                                    in an unauthorized application,
                                    which is prohibited.

                                    Please use an official Ultimate
                                    Guitar Tabs application for iPhone,
                                    iPad or Android to access legitimate
                                    chords, guitar, bass, and drum tabs
                                    from Ultimate-Guitar.com database.

                                    Type "ultimate guitar tabs" in Apple
                                    App Store's or Android Market's
                                    search to find the application.
Band:3 INCHES OF BLOOD
SONG;THE HYDRA'S TEETH
ALBUM;FIRE UP THE BLADES
Tabbed by:deathpidgeon
Email:superdeathpidgeons@hotmail.com

.=palm mute
/\=Slide up and down
h=hammer on
p=pull off
b=bend
"superfingers"=play REALLY fast(on solo)

Standard Tuning

  Fig.1 (1x)
  g.1
e|--------------------------------------------------------------------------|
B|-..-..-..-..-..------............---..-..-..-..-..------............------|
G|--------------------------------5----------------------------------5------|
D|------------------5/7------57--5-7-------------------5/7------57--5-7-----|
A|---5--3--5--3--3/5---555-----57-------5--3--5--3--3/5---555-----57--------|
E|-35-55-55-55-55---------555---------35-55-55-55-55---------555------------|
 |g.2
e|--------------------------------------------------------------------------|
B|--------------------------------------------------------------------------|
G|--------------------------------------------------------------------------|
D|------------------------------------7-------------------------x\----------|
A|------------------------------------7-------------------------x\pickslide-|
E|------------------------------------5-------------------------x\----------|
  After the intro G.1+2 double up on the intro riff.
  then this
  Fig.2 (1x)
  G.1+2
e|--------------------------------------------------------------------------|
B|--------------------------------------------------------------------------|
G|------.....-----.....-----.---.-----.----------.-----------.--------------|
D|-5/7-5-----5/7-5-----5/7-5-5-5-----------5/7-5-------5/7-5----------------|
A|-3/5-3-----3/5-3-----3/5-3-3-3-3/5-3-5-5-------3-----------3--------------|
E|------55555-----55555-----5---5-----5------------5-5---------5-5----------|

  G.1
e|--------------------------------------------------------------------------|
B|--------------------------------------------------------------------------|
G|----......--------...-----------------------------------------------------|
D|--------------------------------------------------------------------------|
A|-/5-3232------------------------------------------------------------------|
E|--------53-5-5-3--035-----------------------------------------------------|
 |g.2
e|--------------------------------------------------------------------------|
B|----......--------...-----------------------------------------------------|
G|-/7-5454---5-5-4----------------------------------------------------------|
D|--------75----------------------------------------------------------------|
A|--------------------------------------------------------------------------|
E|------------------035-----------------------------------------------------|

  Fig.3 (4x)
  g.1+2
e|--------------------------------------------------------------------------|
B|--..-..-.-.--..-.-..-..-.---..-...----------------------------------------|
G|------------------------------5-------------------------------------------|
D|-5-------5-------5-------5/7---777----------------------------------------|
A|-3--7--7-3-57--7-3--7--7-3/555--------------------------------------------|
E|--5555555-5355555-5555555-------------------------------------------------|

  fig.4 (2x)
  g.1                  end 1      end 2
e|--------------------|----------|------------------------------------------|
B|--------------------|----------|------------------------------------------|
G|--------.---.....---|-----...--|-...........------------------------------|
D|-7-5h7p5-10------12-|-8-75-----|-15-15------------------------------------|
A|-5------78--8101210-|-----8578-|-13-13-15-15------------------------------|
E|--------------------|----------|-------13-13------------------------------|
 |g.2                  end 1      end 2
e|--------------------|----------|------------------------------------------|
B|--------------------|----------|------------------------------------------|
G|--------.---....----|----------|-..........-------------------------------|
D|-7------------------|-5-3------|-3--3-------------------------------------|
A|-5-0h1p0-3-------5--|----53035-|-1--1--3--3-------------------------------|
E|--------01--13-5-3--|----------|-------1--1-------------------------------|

  then play Fig.3 but on fourth time play this going into the chorus.
  fig.3b (1x)
  g.1+2
e|--------------------------------------------------------------------------|
B|--..-..-.-.--..-.-----------------------------15--------------------------|
G|----------------------------------------151412----------------------------|
D|-5-------5------------------1210--1412------------------------------------|
A|-3--7--7-3-57--7-108--1210------12----14----------------------------------|
E|--5555555-5355555---10----12----------------------------------------------|

  fig.5 (1x) note there are no 1's 2's 3's etc. these are all double digits
  g.1
e|12-000-1415-00-12-000-1415-00-12-000-1415-00-17-0-15-0-14h15-14-0---------|
B|--------------------------------------------------------------------------|
G|--------------------------------------------------------------------------|
 |g.2
e|--------------------------------------------------------------------------|
B|---...------..--......----....-......----....---..---..--------..---------|
G|-9-----1112----9------1112----9------1112----14---12---11h12-11-----------|
D|---999------99--101010----1010-121212----1212---12---12--------12---------|
A|--------------------------------------------------------------------------|
E|--------------------------------------------------------------------------|

  g.1
e|12-000-1415-00-12-000-1415-00-12-000-1415-00-17-0-15-0-14h15-14-0---------|
B|--------------------------------------------------------------------------|
G|--------------------------------------------------------------------------|
 |g.2
e|--------------------------------------------------------------------------|
B|---...------..--......----....-......----....---..---..--------..---------|
G|-9-----1112----9------1112----9------1112----14---12---11h12-11-----------|
D|---999------99--101010----1010-121212----1212---12---12--------12---------|
A|--------------------------------------------------------------------------|
E|--------------------------------------------------------------------------|

  g.1
e|15-000-1719-00-15-000-1719-00-15-000-1719-00-20-0-19-0-17h19-17-0---------|
B|--------------------------------------------------------------------------|
G|--------------------------------------------------------------------------|
 |g.2
e|--------------------------------------------------------------------------|
B|---...------..--......----....-......----....---..---..--------..---------|
G|-9-----1112----9------1112----9------1112----14---12---11h12-11-----------|
D|---999------99--101010----1010-121212----1212---12---12--------12---------|
A|--------------------------------------------------------------------------|
E|--------------------------------------------------------------------------|

  g.1
e|15-000-1719-00-15-000-1719-00-15-000-1719-00------------------------------|
B|----------------------------------------------............----------------|
G|--------------------------------------------------------------------------|
D|--------------------------------------------------------10----------------|
A|----------------------------------------------1012----10--12--------------|
E|--------------------------------------------------1012--------------------|
 |g.2
e|--------------------------------------------------------------------------|
B|---...------..--......----....-......----....-............----------------|
G|-9-----1112----9------1112----9------1112---------------------------------|
D|---999------99--101010----1010-121212----1212-----------10----------------|
A|----------------------------------------------1012----10--12--------------|
E|--------------------------------------------------1012--------------------|

 fig.6 (1x)
  g.1
e|--------------------------------------------------------------------------|
B|-..-..-..-..-..------............-----------------------------------------|
G|--------------------------------5-----------------------------------------|
D|------------------5/7------57--5-7----------------------------------------|
A|---5--3--5--3--3/5---555-----57-------------------------------------------|
E|-35-55-55-55-55---------555-----------------------------------------------|
 |g.2
e|--------------------------------------------------------------------------|
B|---------------------------......-----------------------------------------|
G|--------------------------------5-----------------------------------------|
D|-7-------------------------57--5-7----------------------------------------|
A|-7---------------------------57-------------------------------------------|
E|-5------------------------------------------------------------------------|

 then play fig.3,fig.4,fig.3b then this, the rhythm behind the solo.
 fig.7 (2x)
  g.2                                 end 1       end 2
e|-----------------------------------|-----------|--------------------------|
B|-----------------------------------|-----------|---.......----------------|
G|-7----10-5---7----10-5-------------|-----------|--------------------------|
D|-7----10-5---7----10-5---7----10-5-|-7----10-5-|-9-99999999---------------|
A|-5----8--3---5----8--3---7----10-5-|-7----10-5-|-9-99999999---------------|
E|-------------------------5----8--3-|-5----8--3-|-7-77777777---------------|

 fig.8...the solo...bum bum bummm(menacingly)
  g.1
e|--------------------------------------------------------------------------|
B|--------------------------------------10-----13---8-----10-----13---8-----|
G|--------10-10-------------10-10-------12b----15b--10b---12b----15b--10b---|
D|-/12---------10-10--12---------10-10--------------------------------------|
A|--------------------------------------------------------------------------|
E|--------------------------------------------------------------------------|
  "superfingers"
e|-10h13p10-10h13p10-10h13p10-10h13p10--------------------------------------|
B|-------------------------------------10h13p10-10h13p10-10h13p10-10h13p10--|
G|--------------------------------------------------------------------------|
D|--------------------------------------------------------------------------|
A|--------------------------------------------------------------------------|
E|--------------------------------------------------------------------------|
  "superfingers"
e|-10h13p10-10h13p10-10h13p10-----------------------------------------------|
B|----------------------------10h13p10-10h13p10-10h13p10-10h13p10-----------|
G|--------------------------------------------------------------------------|
D|--------------------------------------------------------------------------|
A|--------------------------------------------------------------------------|
E|--------------------------------------------------------------------------|
  "superfingers"
e|--------------------------------------------------------------------------|
B|--------------------------------------------------------------------------|
G|-10h12p10-10h12p10-------------------10h12p10-----------------------------|
D|-------------------10h12p10-10h12p10---------10h12p10---------------------|
A|-----------------------------------------------------10h12p10-10h12p10-10-|
E|--------------------------------------------------------------------------|

e|-20b------17-15-15b\------------------------------------------------------|
B|---------------------/15-13-12--12-----15---------------------------------|
G|------------------------------14--14-12--12\------------------------------|
D|--------------------------------------------------------------------------|
A|--------------------------------------------------------------------------|
E|--------------------------------------------------------------------------|

 fig.9 (1x)
  g.1+2
e|--------------------------------------------------------------------------|
B|--------------------------------------------------------------------------|
G|-....---------------------------------------------------------------------|
D|--------------------9--7-----------------------9--7-----------------------|
A|-75452----4----5----7--5--9--5--2----4----5----7--5--9--5--2--------------|
E|-53230----2----3----------7--3--0----2----3----------7--3--0--------------|

  f.10 (1x)
  g.1
D|-.............................................................------------|
A|--------------------------------------------------------------------------|
E|-0-000-000-000-000-000-000-000-022-222-222-222-222-222-222-222------------|
 |g.2
e|--------------------------------------------------------------------------|
B|-.............................................................------------|
G|--------------------------------------------------------------------------|
D|-2-222-222-222-222-222-222-222-244-444-444-444-444-444-444-444------------|
A|--------------------------------------------------------------------------|
E|--------------------------------------------------------------------------|

  g.1
G|-...............................------------------------------------------|
D|---------------------------------9-7--------------------------------------|
A|---------------------------------7-5-9-5----------------------------------|
E|-223-333-333-333-333-333-333-333-----7-3----------------------------------|
 |g.2
e|--------------------------------------------------------------------------|
B|-...............................------------------------------------------|
G|--------------------------------------------------------------------------|
D|-455-555-555-555-555-555-555-555-9-7--------------------------------------|
A|---------------------------------7-5-9-5----------------------------------|
E|-------------------------------------7-3----------------------------------|

  g.1
D|-.............................................................------------|
A|--------------------------------------------------------------------------|
E|-0-000-000-000-000-000-000-000-022-222-222-222-222-222-222-222------------|
 |g.2
e|--------------------------------------------------------------------------|
B|-.............................................................------------|
G|--------------------------------------------------------------------------|
D|-5-555-555-555-555-555-555-555-577-777-777-777-777-777-777-777------------|
A|--------------------------------------------------------------------------|
E|--------------------------------------------------------------------------|

  g.1
G|-...............................--------....------------------------------|
D|---------------------------------9-7----7545------------------------------|
A|---------------------------------7-5-9------------------------------------|
E|-223-333-333-333-333-333-333-333-----7------------------------------------|
 |g.2
e|--------------------------------------------------------------------------|
B|-...............................--------....------------------------------|
G|----------------------------------------7545------------------------------|
D|-799-999-999-999-999-999-999-999-9-7--------------------------------------|
A|---------------------------------7-5-9------------------------------------|
E|-------------------------------------7------------------------------------|

  f.5b (1x) this is the chorus without the last 7 notes of the 1st chorus
  g.1
e|12-000-1415-00-12-000-1415-00-12-000-1415-00-17-0-15-0-14h15-14-0---------|
B|--------------------------------------------------------------------------|
G|--------------------------------------------------------------------------|
 |g.2
e|--------------------------------------------------------------------------|
B|---...------..--......----....-......----....---..---..--------..---------|
G|-9-----1112----9------1112----9------1112----14---12---11h12-11-----------|
D|---999------99--101010----1010-121212----1212---12---12--------12---------|
A|--------------------------------------------------------------------------|
E|--------------------------------------------------------------------------|

  g.1
e|12-000-1415-00-12-000-1415-00-12-000-1415-00-17-0-15-0-14h15-14-0---------|
B|--------------------------------------------------------------------------|
G|--------------------------------------------------------------------------|
 |g.2
e|--------------------------------------------------------------------------|
B|---...------..--......----....-......----....---..---..--------..---------|
G|-9-----1112----9------1112----9------1112----14---12---11h12-11-----------|
D|---999------99--101010----1010-121212----1212---12---12--------12---------|
A|--------------------------------------------------------------------------|
E|--------------------------------------------------------------------------|

  g.1
e|15-000-1719-00-15-000-1719-00-15-000-1719-00-20-0-19-0-17h19-17-0---------|
B|--------------------------------------------------------------------------|
G|--------------------------------------------------------------------------|
 |g.2
e|--------------------------------------------------------------------------|
B|---...------..--......----....-......----....---..---..--------..---------|
G|-9-----1112----9------1112----9------1112----14---12---11h12-11-----------|
D|---999------99--101010----1010-121212----1212---12---12--------12---------|
A|--------------------------------------------------------------------------|
E|--------------------------------------------------------------------------|

  g.1
e|15-000-1719-00-15-000-1719-00-15-000-1719-00-20-0-19-0-17h19-17-0---------|
B|--------------------------------------------------------------------------|
G|--------------------------------------------------------------------------|
 |g.2
e|--------------------------------------------------------------------------|
B|---...------..--......----....-......----....---..---..--------..---------|
G|-9-----1112----9------1112----9------1112----14---12---11h12-11-----------|
D|---999------99--101010----1010-121212----1212---12---12--------12---------|
A|--------------------------------------------------------------------------|
E|--------------------------------------------------------------------------|

  fig.11 (1x)
  g.1
e|--------------------------------------------------------------------------|
B|---------.....................-----.......-----.......--------------------|
G|---------12-11--12-11--14-12--12---11-----11---11-----12------------------|
D|--------------12-----12-----14-------14-12-------14-12--------------------|
A|-10---8-------------------------------------------------------------------|
E|---------------------------------------------------------0----------------|
 |g.2
e|--------------------------------------------------------------------------|
B|--------------------------------------------------------------------------|
G|---------.....................-----......------......---------------------|
D|---------4------4------7--5---5----4------4----4------5-------------------|
A|-7----5-----7-5----7-5------7--------7--5--------7--5---------------------|
E|---------------------------------------------------------0----------------|

 fig.12 (4x)
  g.1+2
e|---------------------------------------------------------------------------|
B|---------------------------------------------------------------------------|
G|-...-.....------......-----------------------------------------------------|
D|---252---------------------------------------------------------------------|
A|-25---53532--2--532-2--2---------------------------------------------------|
E|-------------------5-3-0---------------------------------------------------|

  fig.13 (4x)
  g.1
e|--------------------------------------------------------------------------|
B|--------------------------------------------------------------------------|
G|---474--------------------------------------------------------------------|
D|-47---75754--4--754-4-----------------------------------------------------|
A|-------------------7-5----------------------------------------------------|
E|-----------------------0--------------------------------------------------|
 |g.2
e|---------------------------------------------------------------------------|
B|---------------------------------------------------------------------------|
G|-...-.....------......-----------------------------------------------------|
D|---252---------------------------------------------------------------------|
A|-25---53532--2--532-2--2---------------------------------------------------|
E|-------------------5-3-0---------------------------------------------------|

  fig.14 (4x).
  g.1
e|--------------------------------------------------------------------------|
B|--------------------------------------------------------------------------|
G|-.....---............-----------...........-------------------------------|
D|-----2-5--2---------------------------------------------------------------|
A|-2-5-------5--3--5--3--2----2---5--3--2--2---2----------------------------|
E|---------------------------------------5--3--0----------------------------|
 |g.2
e|--------------------------------------------------------------------------|
B|--------------------------------------------------------------------------|
G|-----9-12-9---------------------------------------------------------------|
D|-9-12------12-10-12-10-9----9---12-10-9--9--------------------------------|
A|---------------------------------------12-10------------------------------|
E|---------------------------------------------0----------------------------|

 fig.15 (4x)
  g.1+2
e|--------------------------------------------------------------------------|
B|--------------------------------------------------------------------------|
G|--------------------------------------------------------------------------|
D|-......-------------------------------------------------------------------|
A|-532-2--2-----------------------------------------------------------------|
E|----5-3-0-----------------------------------------------------------------|

 end on E, well this is a rad song, hope you like it as much as me.
 till next time, vote for pedro...er...deathpidgeon.
comments
print report bad tab
5 comments total. Showing first comments.
0 reply
engeld wrote on December 1 2007, 10:15 pm

Amazing tab dude! We need more tabbers like you to post some good 3IOB tabs. This gets 5 stars

0 reply
1Fire wrote on December 3 2007, 06:47 am

Awesome! thanks and keep going on the rest of the album :D

+1 reply
Neverhead666 wrote on May 17 2008, 02:30 pm

dude, this tab is beastly. difficult song, but its still damn good. you think you could tab out the lead bits for Revenge Is A Vulture, the tab thats on here doesn't include the solo or leads during the verse.

I want to post or [tab]
guest
You may want to rate the tab now too:
select rating
Please do not post tabs as comments. Select "correction" instead!