Oops, an error
Loading. Please wait.

Wykydtron Tab

ver1
ver1

Whole song

Interactive

More versions @911Tabs.com
4,163 views 6 this week
7 commentsread comments
1 2 3 4 5
excellent!
x 3
Autoscroll
+/-
esc
set tempo
stop
Contributor
WARNING: You are trying to view
                                    content from Ultimate-Guitar.com
                                    in an unauthorized application,
                                    which is prohibited.

                                    Please use an official Ultimate
                                    Guitar Tabs application for iPhone,
                                    iPad or Android to access legitimate
                                    chords, guitar, bass, and drum tabs
                                    from Ultimate-Guitar.com database.

                                    Type "ultimate guitar tabs" in Apple
                                    App Store's or Android Market's
                                    search to find the application.
                            3 Inches Of Blood
                                WYKYDTRON


PH-Pinch Harmonic
b-Bend
h-Hammer On
p-Pull off
.-Palm Mute


Intro,
play 4x
e---------------------------------------------------------------------------|
B--------------------------------------------5------------------------------|
G---------------------------------------------------------------------------|
D---4--4------------4--2--0--2--0----------------------2--------------------|
A---2--2-----0--2-------------------4--0--0-----0--0------------------------|
E---------------------------------------------------------------------------|
             ............    ...............    .....


e-----------------------------------------------------------------|
B-----------------------------------------------------------------|
G--------------------------------2h4------------------------------|
D----------4--2--0--2--0--------------4--2------------------------|
A---0--2-------------------4-----------------4--2--0--------------|
E-----------------------------------------------------------------|
    ............   .........          ............
Intro Harmony
e-----------------------------------------------------------------|
B-----------------------------------------------------------------|
G-----------------------------------------------------------------|
D----------7--5--4--0---------------------------------------------|
A---2--5----------------------------------------------------------|
E-----------------------------------------------------------------|
    .....


Main Riff
e-----------------------------------------------------------------|
B-----------------------------------------------------------------|
G-----------------------------------------------------------------|
D--2-----4--------------------------------------------4--4--4--4--|
A--0-----2----2--2--2----2--2--2----2--2--2----2--2---0--2--0--2--|
E-----------------------------------------------------------------|
             ........   ........    .......   ......


e-----------------------------------------------------------------|
B-----------------------------------------------------------------|
G-----------------------------------------------------------------|
D-------------7--7----12--11--9--7----2--2--4---------------------|
A--2--2--2----5--5----10--9---7--5----0--0--2---------------------|
E-----------------------------------------------------------------|
  ........

e-----------------------------------------------------------------|
B-----------------------------------------------------------------|
G-----------------------------------------------------------------|
D-----------------------------------------------------------------|
A--2--2--2----2--2--2----2--2--2----2--2----5--2--5--2------------|
E-----------------------------------------------------------------|
  ........   ........   ........    .....


e-----------------------------------------------------------------|
B-----------------------------------------------------------------|
G-----------------------------------------------------------------|
D--7--7------5--4--3------------------------2--2----4-------------|
A--5--5----------------5--4--5----2--4--5-----------2-------------|
E-----------------------------------------------------------------|
           .....................


e-----------------------------------------------------------------|
B-----------------------------------------------------------------|
G-----------------------------------------------------------------|
D------------------------------------------4--4--4--4-------------|
A--2--2--2----2--2--2----2--2--2----2--2---0--2--0--2-------------|
E-----------------------------------------------------------------|
  ........   .........  ........   ......

e-----------------------------------------------------------------|
B-----------------------------------------------------------------|
G-----------------------------------------------------------------|
D-------------7--7------------12--11--9--7----2--2--4-------------|
A--2--2--2----5--5------------10--9---7--5----0--0--2-------------|
E-----------------------------------------------------------------|
  ........

e-----------------------------------------------------------------|
B-----------------------------------------------------------------|
G-----------------------------------------------------------------|
D---------------------------------------------------------7--2----|
A--2--2--2----2--2--2----2--2--2----2--2----5--2--5--2----5--0----|
E-----------------------------------------------------------------|
  ........   .........  .........  ......


Play 2x
e---------------------------------------------------------------------------|
B---------------------------------------------------------------------------|
G---------------------------------------------------------------------------|
D-4----------------------------------------------2--------------------------|
A-2--2--2--2--2--2--2--2--2----5--5--4--4--2--2--0--0--0--0--0--0--0--0--0--|
E---------------------------------------------------------------------------|
     .......................  ..................   ........................

e---------------------------------------------------------------------------|
B---------------------------------------------------------------------------|
G---------------------------------------------------------------------------|
D-------------------4----------------------------------------------2--------|
A-4--4--2--2--0--0--2--2--2--2--2--2--2--2--2----5--5--4--4--2--2--0--0--0--|
E---------------------------------------------------------------------------|
  .................    ......................    .................   ......

e---------------------------------------------------------------------------|
B---------------------------------------------------------------------------|
G---------------------------------------------------------------------------|
D---------------------------------------7-----------------------------------|
A-0--0--0--0--0--0----7--7--5--5--4--4--5--5--5--5--5--5--5--5--5----5--5---|
E---------------------------------------------------------------------------|
 .................   ..................    .................................

e---------------------------------------------------------------------------|
B---------------------------------------------------------------------------|
G---------------------------------------------------------------------------|
D-------------2----------------------------------------------4--------------|
A-4--4--2--2--0--0--0--0--0--0--0--0--0----4--4--2--2--0--0--2--2--2--2--2--|
E---------------------------------------------------------------------------|
 ............    .......................  ..................   ............

e----------------------------------------------------------------------------|
B----------------------------------------------------------------------------|
G----------------------------------------------------------------------------|
D---------------------------------2------------------------------------------|
A-2--2--2--2----5--5--4--4--2--2--0--0--0--0--0--0--0--0--0----4--4--2--2--0-|
E----------------------------------------------------------------------------|
  ..........   ..................   ........................   .............

e---------------------------------------------------------------------------|
B---------------------------------------------------------------------------|
G---------------------------------------------------------------------------|
D----4----------------------2-------------------------9---------------------|
A-0--2--2--2--2--2--2--2----0-----0--0--0--0--0--0----7---------------------|
E---------------------------------------------------------------------------|
 ...   ..................        ..................


Play 3x
e---------------------------------------------------------------------------|
B---------------------------------------------------------------------------|
G---------------------------------------------------------------------------|
D--4----4--4--4--2--2--2--0----4----4--4--4--2--2--2--0---------------------|
A--2---------------------------2--------------------------------------------|
E---------------------------------------------------------------------------|
       ..................          ..................

e---------------------------------------------------------------------------|
B---------------------------------------------------------------------------|
G---------------------------------------------------------------------------|
D--7----7--7--7--5--5--5--4----7----7--7--7--5--5--5--4---------------------|
A--5---------------------------5--------------------------------------------|
E---------------------------------------------------------------------------|
       ..................          ..................

Harmony
e-------------------------------------------------------------------------------|
B-------------------------------------------------------------------------------|
G-------------------------------------------------------------------------------|
D--7----7--7--7--5--5--5--4----7----7--7--7--5--5--5--4-------------------------|
A--5---------------------------5------------------------------------------------|
E-------------------------------------------------------------------------------|
       ..................          ..................

e---------------------------------------------------------------------------|
B---------------------------------------------------------------------------|
G---------------------------------------------------------------------------|
D-11----11--11--11--9--9--9--7----11----11--11--11--9--9--9--7--------------|
A-9-------------------------------9-----------------------------------------|
E---------------------------------------------------------------------------|
       ....................            .....................

Then This
e---------------------------------------------------------------------------|
B---------------------------------------------------------------------------|
G---------------------------------------------------------------------------|
D--4----4--4--4--2--2--2--0----4----4--4--4--2--2--2--0---------------------|
A--2---------------------------2--------------------------------------------|
E---------------------------------------------------------------------------|
       ..................          ..................


                                                                                         
                                     /Pick Scrape Down
e---------------------------------------------------------------------------|
B---------------------------------------------------------------------------|
G---------------------------------------------------------------------------|
D-7----7--7--7--5--5--5--4---9--9--9---11--11--11--x--x--x--x--x--x--x--x---|
A-5--------------------------7--7--7---9---9---9---x--x--x--x--x--x--x--x---|
E---------------------------------------------------------------------------|
      .................

e----------------------------------------------------------------------------|
B----------------------------------------------------------------------------|
G----------------------------------------------------------------------------|
D-2----------------------------------------------4----------------6--7--6--4-|
A-0--0--0--0--0--0--0--0--0--0--0--0--0--0--0----2--2--2--2--2----4--5--4--2-|
E----------------------------------------------------------------------------|
    ..........................................     ............


e---------------------------------------------------------------------------|
B---------------------------------------------------------------------------|
G---------------------------------------------------------------------------|
D-6----------------------------------------------7----------------9-11-9--7-|
A-4--4--4--4--4--4--4--4--4--4--4--4--4--4--4----5--5--5--5--5----7-9--7--5-|
E---------------------------------------------------------------------------|
     .........................................      ..........

e---------------------------------------------------------------------------|
B---------------------------------------------------------------------------|
G---------------------------------------------------------------------------|
D-2----------------------------------------------7----------------9-11-9--7-|
A-0--0--0--0--0--0--0--0--0--0--0--0--0--0--0----5--5--5--5--5----7-9--7--5-|
E---------------------------------------------------------------------------|
     ..........................................     ............

e---------------------------------------------------------------------------|
B---------------------------------------------------------------------------|
G---------------------------------------------------------------------------|
D-9----------------------11----4--------------2----4--------------2---------|
A-7--7--7--7--7--7--7----9-----2--4--5--7--5--0----2--4--5--7--5--0---------|
E---------------------------------------------------------------------------|
     ..................            ...........         ...........

e---------------------------------------------------------------------------|
B---------------------------------------------------------------------------|
G---------------------------------------------------------------------------|
D-4--------------2----7--7--7--9--------------------------------------------|
A-2--4--5--7--5--0----5--5--5--7--------------------------------------------|
E---------------------------------------------------------------------------|
    ............


Play 3x
e---------------------------------------------------------------------------|
B---------------------------------------------------------------------------|
G---------------------------------------------------------------------------|
D-4--------------2----4--------------2----4--------------2----7--7--7--9----|
A-2--4--5--7--5--0----2--4--5--7--5--0----2--4--5--7--5--0----5--5--5--7----|
E---------------------------------------------------------------------------|
    ............        ............        ............


Harmony (only play last 2x)
e---------------------------------------------------------------------------|
B---------------------------------------------------------------------------|
G-7--9--7-------------7--9--7-------------7--9--7-----------7-----10b-------|
D---------7----9--9------------7----9--9-----------7----5b-----5------------|
A---------------------------------------------------------------------------|
E---------------------------------------------------------------------------|
                                                        PH        PH


Then This 3x
e----------------------------------------------------------------------------|
B-10--9--7--9--10--9--7--9--10--9--10--12--10--9--10--9----------------------|
G--------------------------------------------------------14--13--11-11h13p11-|
D----------------------------------------------------------------------------|
A----------------------------------------------------------------------------|
E----------------------------------------------------------------------------|


e---------------------------------------------------------------------------|
B---------------------------------------------------------------------------|
G---------------------------------------------------------------------------|
D--9------------------------------------------------------------------------|
A---------------------------------------------------------------------------|
E---------------------------------------------------------------------------|

Harmony
e---------------------------------------------------------------------------|
B-7--5--3--5--7--5--3--5--7--5--7--9--7--5--7--5----------------------------|
G---------------------------------------------------11--9--7--7h9p7---------|
D--------------------------------------------------------------------7------|
A---------------------------------------------------------------------------|
E---------------------------------------------------------------------------|


I'll add the solo part in later


Then This 2x (Riff During Solo)
e---------------------------------------------------------------------------|
B---------------------------------------------------------------------------|
G---------------------------------------------------------------------------|
D-4----------4----------4-------------6--6--7--7--2--2----------------------|
A-2--2--2----2--2--2----2--2--2--2----4--4--5--5--0--0----------------------|
E---------------------------------------------------------------------------|
    ......     ......     ........

e----------------------------------------------------------------------------|
B----------------------------------------------------------------------------|
G----------------------------------------------------------------------------|
D-7----------7----------7----------------------------------------------------|
A-5--5--5----5--5--5----5----7--7--9--9--10--10--7--7--5--5--7--7--9--9--5-5-|
E----------------------------------------------------------------------------|
    ......     ......       ................................................

e---------------------------------------------------------------------------|
B---------------------------------------------------------------------------|
G---------------------------------------------------------------------------|
D-4----------4----------4-------------6--6--7--7--2--2----------------------|
A-2--2--2----2--2--2----2--2--2--2----4--4--5--5--0--0----------------------|
E---------------------------------------------------------------------------|
    ......     ......     .........


Play 2x
e---------------------------------------------------------------------------|
B---------------------------------------------------------------------------|
G---------------------------------------------------------------------------|
D-6----------6----------6-------6-------------------------------------------|
A-4--4--4----4--4--4----4--4----4----6--6--6--7--7--7--2--2--2--------------|
E---------------------------------------------------------------------------|
    ......     ......     ...       ...........................

e---------------------------------------------------------------------------|
B---------------------------------------------------------------------------|
G---------------------------------------------------------------------------|
D-4----7----9----11---------------------------------------------------------|
A-2----5----7----9----------------------------------------------------------|
E---------------------------------------------------------------------------|


e-----------------------------------------------------------------|
B-----------------------------------------------------------------|
G-----------------------------------------------------------------|
D--2-----4--------------------------------------------4--4--4--4--|
A--0-----2----2--2--2----2--2--2----2--2--2----2--2---0--2--0--2--|
E-----------------------------------------------------------------|
             ........   ........    .......   ......


e-----------------------------------------------------------------|
B-----------------------------------------------------------------|
G-----------------------------------------------------------------|
D-------------7--7----12--11--9--7----2--2--4---------------------|
A--2--2--2----5--5----10--9---7--5----0--0--2---------------------|
E-----------------------------------------------------------------|
  ........

e-----------------------------------------------------------------|
B-----------------------------------------------------------------|
G-----------------------------------------------------------------|
D-----------------------------------------------------------------|
A--2--2--2----2--2--2----2--2--2----2--2----5--2--5--2------------|
E-----------------------------------------------------------------|
  ........   ........   ........    .....


e-----------------------------------------------------------------|
B-----------------------------------------------------------------|
G-----------------------------------------------------------------|
D--7--7------5--4--3------------------------2--2----4-------------|
A--5--5----------------5--4--5----2--4--5-----------2-------------|
E-----------------------------------------------------------------|
           .....................


e-----------------------------------------------------------------|
B-----------------------------------------------------------------|
G-----------------------------------------------------------------|
D------------------------------------------4--4--4--4-------------|
A--2--2--2----2--2--2----2--2--2----2--2---0--2--0--2-------------|
E-----------------------------------------------------------------|
  ........   .........  ........   ......

e-----------------------------------------------------------------|
B-----------------------------------------------------------------|
G-----------------------------------------------------------------|
D-------------7--7------------12--11--9--7----2--2--4-------------|
A--2--2--2----5--5------------10--9---7--5----0--0--2-------------|
E-----------------------------------------------------------------|
  ........

e-----------------------------------------------------------------|
B-----------------------------------------------------------------|
G-----------------------------------------------------------------|
D---------------------------------------------------------7--2----|
A--2--2--2----2--2--2----2--2--2----2--2----5--2--5--2----5--0----|
E-----------------------------------------------------------------|
  ........   .........  .........  ......


Play 2x
e---------------------------------------------------------------------------|
B---------------------------------------------------------------------------|
G---------------------------------------------------------------------------|
D-4----------------------------------------------2--------------------------|
A-2--2--2--2--2--2--2--2--2----5--5--4--4--2--2--0--0--0--0--0--0--0--0--0--|
E---------------------------------------------------------------------------|
     .......................  ..................   ........................

e---------------------------------------------------------------------------|
B---------------------------------------------------------------------------|
G---------------------------------------------------------------------------|
D-------------------4----------------------------------------------2--------|
A-4--4--2--2--0--0--2--2--2--2--2--2--2--2--2----5--5--4--4--2--2--0--0--0--|
E---------------------------------------------------------------------------|
  .................    ......................    .................   ......

e---------------------------------------------------------------------------|
B---------------------------------------------------------------------------|
G---------------------------------------------------------------------------|
D---------------------------------------7-----------------------------------|
A-0--0--0--0--0--0----7--7--5--5--4--4--5--5--5--5--5--5--5--5--5----5--5---|
E---------------------------------------------------------------------------|
 .................   ..................    .................................

e---------------------------------------------------------------------------|
B---------------------------------------------------------------------------|
G---------------------------------------------------------------------------|
D-------------2----------------------------------------------4--------------|
A-4--4--2--2--0--0--0--0--0--0--0--0--0----4--4--2--2--0--0--2--2--2--2--2--|
E---------------------------------------------------------------------------|
 ............    .......................  ..................   ............

e----------------------------------------------------------------------------|
B----------------------------------------------------------------------------|
G----------------------------------------------------------------------------|
D---------------------------------2------------------------------------------|
A-2--2--2--2----5--5--4--4--2--2--0--0--0--0--0--0--0--0--0----4--4--2--2--0-|
E----------------------------------------------------------------------------|
  ..........   ..................   ........................   .............

e----------------------------------------------------------------|
B----------------------------------------------------------------|
G----------------------------------------------------------------|
D----4-------------------------------------2---------------------|
A-0--2----2--2--2----2--2--2----5--4--2----0----0--0--0----0--0--|
E----------------------------------------------------------------|
 ...     .........  .........             .........       ......

e----------------------------------------------------------------------------|
B----------------------------------------------------------------------------|
G----------------------------------------------------------------------------|
D-----------------4-------------------------------------2--------------------|
A-0----4--2--0----2----2--2--2----2--2--2----5--4--2----0----0--0--0----0--0-|
E----------------------------------------------------------------------------|
 ...  .........       .........  .........  .........       .........   ....

e----------------------------------------------------------------------------|
B----------------------------------------------------------------------------|
G----------------------------------------------------------------------------|
D-----------------7-------------------------------------2--------------------|
A-0----7--5--4----5----5--5--5----5--5--5----5--4--2----0----0--0--0----0--0-|
E----------------------------------------------------------------------------|
 ...  .........       .........  .........  .........       .........   ....


e----------------------------------------------------------------------------|
B----------------------------------------------------------------------------|
G----------------------------------------------------------------------------|
D-----------------4-------------------------------------2--------------------|
A-0----4--2--0----2----2--2--2----2--2--2----5--4--2----0----0--0--0----0--0-|
E----------------------------------------------------------------------------|
 ...  .........       .........  .........  .........       .........   ....

e---------------------------------------------------------------------------|
B---------------------------------------------------------------------------|
G---------------------------------------------------------------------------|
D------4----------------------2---------------------------------------------|
A-0----2--2--2--2--2--2--2----0--0--0--0--0--0--0----5--7--9--7--5--4----5--|
E---------------------------------------------------------------------------|
 ...     ..................     .................

e---------------------------------------------------------------------------|
B---------------------------------------------------------------------------|
G---------------------------------------------------------------------------|
D---------------------------------------------------------------------------|
A-7--9--7--5--7----5--7--9--7--5--4----9--7--5--7--5--4--5----5--5--5--7--7-|
E---------------------------------------------------------------------------|


e---------------------------------------------------------------------------|
B---------------------------------------------------------------------------|
G---------------------------------------------------------------------------|
D---------------------------------------------------------------------------|
A-7--9--9--9--7--7--7--4--4--4--4--4--4--4--4--4--4--4--4----5--5--5--7--7--|
E---------------------------------------------------------------------------|


e---------------------------------------------------------------------------|
B---------------------------------------------------------------------------|
G---------------------------------------------------------------------------|
D---------------------------------------------------------------------------|
A-7--9--9--9--7--7--7--5--5--5--7--7--7--7--7--7--7--7--7--7--7--7----5--5--|
E---------------------------------------------------------------------------|


e---------------------------------------------------------------------------|
B---------------------------------------------------------------------------|
G---------------------------------------------------------------------------|
D---------------------------------------------------------------------------|
A-5--7--7--7--9--9--9--7--7--7--4--4--4--4--4--4--4--4--4--4--4--4----9--7--|
E---------------------------------------------------------------------------|


e---------------------------------------------------------------------------|
B---------------------------------------------------------------------------|
G---------------------------------------------------------------------------|
D---------------------------------------------------------------------------|
A-5--7--5--4--5-------------------------------------------------------------|
E---------------------------------------------------------------------------|

Harmony
e----------------------------------------------------------------------------|
B----------------------------------------------------------------------------|
G-7--9--11--9--7--6----7--9--11--9--7--9----7--9--11--9--7--6----11--9--7--9-|
D----------------------------------------------------------------------------|
A----------------------------------------------------------------------------|
E----------------------------------------------------------------------------|


e---------------------------------------------------------------------------|
B---------------------------------------------------------------------------|
G-7--6--7----7--7--7--9--9--9--11--11--11--9--9--9--6--6--6--6--6--6--6--6--|
D---------------------------------------------------------------------------|
A---------------------------------------------------------------------------|
E---------------------------------------------------------------------------|


e---------------------------------------------------------------------------|
B---------------------------------------------------------------------------|
G-6--6--6--6----7--7--7--9--9--9--11--11--11--7--7--7--9--9--9--9--9--9--9--|
D---------------------------------------------------------------------------|
A---------------------------------------------------------------------------|
E---------------------------------------------------------------------------|


e---------------------------------------------------------------------------|
B---------------------------------------------------------------------------|
G-9--9--9--9--9----7--7--7--9--9--9--11--11--11--6--6--6--6--6--6--6--6--6--|
D---------------------------------------------------------------------------|
A---------------------------------------------------------------------------|
E---------------------------------------------------------------------------|


e---------------------------------------------------------------------------|
B---------------------------------------------------------------------------|
G-6--6--6----11--9--7--9--7--6--7-------------------------------------------|
D---------------------------------------------------------------------------|
A---------------------------------------------------------------------------|
E---------------------------------------------------------------------------|


The This 3x
e---------------------------------------------------------------------------|
B---------------------------------------------------------------------------|
G---------------------------------------------------------------------------|
D-4--------------2----4--------------2----4--------------2----7--7--7--9----|
A-2--4--5--7--5--0----2--4--5--7--5--0----2--4--5--7--5--0----5--5--5--7----|
E---------------------------------------------------------------------------|
    ............        ............        ............


Harmony (Play 2nd to last time)
e---------------------------------------------------------------------------|
B---------------------------------------------------------------------------|
G-7--9--7-------------7--9--7-------------7--9--7-----------7-----10b-------|
D---------7----9--9------------7----9--9-----------7----5b-----5------------|
A---------------------------------------------------------------------------|
E---------------------------------------------------------------------------|
                                                        PH        PH

Very End
e---------------------------------------------------------------------------|
B---------------------------------------------------------------------------|
G---------------------------------------------------------------------------|
D-4--------------2----4--------------2----4--------------2------------------|
A-2--4--5--7--5--0----2--4--5--7--5--0----2--4--5--7--5--0---9--9--7--7--5--|
E---------------------------------------------------------------------------|
    ............        ............        ............

e---------------------------------------------------------------------------|
B---------------------------------------------------------------------------|
G---------------------------------------------------------------------------|
D------------------------------------4--4-----------------------------------|
A-5--4--4--5--5--4--4--2--2--0--0----2--2-----------------------------------|
E---------------------------------------------------------------------------|


Harmony (play last time)
e---------------------------------------------------------------------------|
B---------------------------------------------------------------------------|
G-7--9--7-------------7--9--7-------------7--9--7---------------------------|
D---------7----9--9------------7----9--9-----------7------------------------|
A---------------------------------------------------------------------------|
E---------------------------------------------------------------------------|
comments
We did not receive enough feedback on this tab! Please rate:
print report bad tab
1 2 3 4 5
7 comments total. Showing first comments.
0 reply
Music ismy Drug wrote on December 14 2006, 01:35 am

Thank you! This is an amazing song and was in great need of being tabbed!

0 reply
MetalHead816 wrote on December 14 2006, 08:07 pm

no problem dude :p

0 reply
MetalHead816 wrote on December 14 2006, 08:07 pm

i'm also working on fear on the bridge almost done

I want to post or [tab]
guest
You may want to rate the tab now too:
select rating
Please do not post tabs as comments. Select "correction" instead!