Oops, an error
Loading. Please wait.

5 Seconds Of Summer Bass Tab

4,091 views 274 this week
no commentswrite comment
1 2 3 4 5
excellent!
x 7
Autoscroll
+/-
esc
set tempo
stop
Contributor
Difficulty
Tuning
novice
D A D G B E
Hey! There's an official Ultimate Guitar app which is ideal
for learning songs when you're away from computer. Get the app
WARNING: You are trying to view
                                    content from Ultimate-Guitar.com
                                    in an unauthorized application,
                                    which is prohibited.

                                    Please use an official Ultimate
                                    Guitar Tabs application for iPhone,
                                    iPad or Android to access legitimate
                                    chords, guitar, bass, and drum tabs
                                    from Ultimate-Guitar.com database.

                                    Type "ultimate guitar tabs" in Apple
                                    App Store's or Android Market's
                                    search to find the application.
5 Seconds of Summer - Self Titled

1.   She Looks So Perfect
2.   Don't Stop
3.   Good Girls
4.   Kiss Me Kiss Me
5.   18
6.   Everything I Didn't Say
7.   Beside You
8.   End Up Here
9.   Long Way Home (Coming Soon)
10.  Heartbreak Girl
11.  English Love Affair
12.  Amnesia

Every Song Tabbed By Jack Mills

===========================================================================================

She Looks So Perfect
IN STANDARD TUNING

  Intro 0:14
G|-----------------------------------------------------------------------------------|
D|o---------------------------------------------------------------------------------o|
A|o-7-7-7-7-7-7-7-7-11-11-11-11-11-11-11-11-----------------12-12-12-12-12-12-12-12-o|
E|------------------------------------------9-9-9-9-9-9-9-9--------------------------|x2
    1 + 2 + 3 + 4 + 1  +  2  +  3  +  4  +  1 + 2 + 3 + 4 + 1  +  2  +  3  +  4  +

Rest

  Pre-Chorus 0:38
G|-----------------------------------------------------------------|
D|-----------------------------------------------------------------|
A|-----------------------------------------------------------------|
E|---------------------------------------------------------5-\-\-\-|
   1 + 2 + 3 + 4 + 1 + 2 + 3 + 4 + 1 + 2 + 3 + 4 + 1 + 2 + 3 + 4 +

  Chorus 0:44
G|-------------------------------------------------------------------|
D|o-----------------------------------------------------------------o|
A|o---------------------------------4-4-4-4-4-4-4-4-----------------o|
E|--0-0-0-0-0-0-0-0---4-4-4-4-4-4-4-------------------5-5-5-5-5-5-5--|x3
    1 + 2 + 3 + 4 + 1 + 2 + 3 + 4 + 1 + 2 + 3 + 4 + 1 + 2 + 3 + 4 +

G|-----------------------------------------------------------------|
D|-----------------------------------------------------------------|
A|-----------------------------2-2-4-4-4-4-4-4-4-4-----------------|
E|-0-0-0-0-0-0-0-0---4-4-4-4-4-------------------------------------|
   1 + 2 + 3 + 4 + 1 + 2 + 3 + 4 + 1 + 2 + 3 + 4 + 1 + 2 + 3 + 4 +

G|-----------------------------------------------------------------|
D|-----------------------------------------------------------------|
A|---------------------------------4-4-4-4-4-4-4-4-----------------|
E|-0-0-0-0-0-0-0-0---4-4-4-4-4-4-4-------------------5-5-5-5-5-5-5-|
   1 + 2 + 3 + 4 + 1 + 2 + 3 + 4 + 1 + 2 + 3 + 4 + 1 + 2 + 3 + 4 +

G|-----------------------------------------------------------------|
D|-----------------------------------------------------------------|
A|-----------------------------2-2-4-4-4-4-4-4-4-4-----------------|
E|-0-0-0-0-0-0-0-0---4-4-4-4-4-----------------------5-5-5-5-5-5-5-|
   1 + 2 + 3 + 4 + 1 + 2 + 3 + 4 + 1 + 2 + 3 + 4 + 1 + 2 + 3 + 4 +

  Verse 1:21
G|-----------------------------------------------------------------|
D|-----------------------------------------------------------------|
A|-----------------------------------------------------------------|
E|---------------------------------------------------------5-\-\-\-|
   1 + 2 + 3 + 4 + 1 + 2 + 3 + 4 + 1 + 2 + 3 + 4 + 1 + 2 + 3 + 4 +

G|-------------------------------------------------------------------------------|
D|-----------------------------------9-9-11-11-11-11-11-11-11-11-7-7-7-7-7-7-7-7-|
A|-7-7-7-7-7-7-7-7-11-11-11-11-11-11---------------------------------------------|
E|-------------------------------------------------------------------------------|x2
   1 + 2 + 3 + 4 + 1  +  2  +  3  +  4 + 1  +  2  +  3  +  4  +  1 + 2 + 3 + 4 +

G|-------------------------------------------------------------------------------|
D|-----------------------------------9-9-11-11-11-11-11-11-11-11-----------------|
A|-7-7-7-7-7-7-7-7-11-11-11-11-11-11-----------------------------12\-------------|
E|-------------------------------------------------------------------------------|
   1 + 2 + 3 + 4 + 1  +  2  +  3  +  4 + 1  +  2  +  3  +  4  +  1 + 2 + 3 + 4 +

  Chorus 1:45
G|-------------------------------------------------------------------|
D|o-----------------------------------------------------------------o|
A|o---------------------------------4-4-4-4-4-4-4-4-----------------o|
E|--0-0-0-0-0-0-0-0---4-4-4-4-4-4-4-------------------5-5-5-5-5-5-5--|x3
    1 + 2 + 3 + 4 + 1 + 2 + 3 + 4 + 1 + 2 + 3 + 4 + 1 + 2 + 3 + 4 +

G|-----------------------------------------------------------------|
D|-----------------------------------------------------------------|
A|-----------------------------2-2-4-4-4-4-4-4-4-4-----------------|
E|-0-0-0-0-0-0-0-0---4-4-4-4-4-------------------------------------|
   1 + 2 + 3 + 4 + 1 + 2 + 3 + 4 + 1 + 2 + 3 + 4 + 1 + 2 + 3 + 4 +

G|-----------------------------------------------------------------|
D|-----------------------------------------------------------------|
A|---------------------------------4-4-4-4-4-4-4-4-----------------|
E|-0-0-0-0-0-0-0-0---4-4-4-4-4-4-4-------------------5-5-5-5-5-5-5-|
   1 + 2 + 3 + 4 + 1 + 2 + 3 + 4 + 1 + 2 + 3 + 4 + 1 + 2 + 3 + 4 +

G|-----------------------------------------------------------------|
D|-----------------------------------------------------------------|
A|-----------------------------2-2-4-4-4-4-4-4-4-4-----------------|
E|-0-0-0-0-0-0-0-0---4-4-4-4-4-----------------------5-5-5-5-5-5-5-|
   1 + 2 + 3 + 4 + 1 + 2 + 3 + 4 + 1 + 2 + 3 + 4 + 1 + 2 + 3 + 4 +

  Bridge
G|-------------------------------------------------------------------|
D|o-----------------------------------------------------------------o|
A|o-----------------------------------------------------------------o|
E|-------------------------------------------------------------------|x4
    1 + 2 + 3 + 4 + 1 + 2 + 3 + 4 + 1 + 2 + 3 + 4 + 1 + 2 + 3 + 4 +
 
  Solo 2:45
G|-------------------------------------------------------------------|
D|o-----------------------------------------------------------------o|
A|o---------------------------------4-4-4-4-4-4-4-4-----------------o|
E|--0-0-0-0-0-0-0-0---4-4-4-4-4-4-4-------------------5-5-5-5-5-5-\--|x2
    1 + 2 + 3 + 4 + 1 + 2 + 3 + 4 + 1 + 2 + 3 + 4 + 1 + 2 + 3 + 4 +


  Chorus 2:57
G|-----------------------------------------------------------------|
D|-----------------------------------------------------------------|
A|---------------------------------4-4-4-4-4-4-4-4-----------------|
E|-0-0-0-0-0-0-0-0---4-4-4-4-4-4-4-------------------5-5-5-5-5-5-5-|
   1 + 2 + 3 + 4 + 1 + 2 + 3 + 4 + 1 + 2 + 3 + 4 + 1 + 2 + 3 + 4 +

G|-----------------------------------------------------------------|
D|-----------------------------------------------------------------|
A|-----------------------------2-2-4-4-4-4-4-4-4-4-----------------|
E|-0-0-0-0-0-0-0-0---4-4-4-4-4-------------------------------------|
   1 + 2 + 3 + 4 + 1 + 2 + 3 + 4 + 1 + 2 + 3 + 4 + 1 + 2 + 3 + 4 +

G|-----------------------------------------------------------------|
D|-----------------------------------------------------------------|
A|---------------------------------4-4-4-4-4-4-4-4-----------------|
E|-0-0-0-0-0-0-0-0---4-4-4-4-4-4-4-------------------5-5-5-5-5-5-5-|
   1 + 2 + 3 + 4 + 1 + 2 + 3 + 4 + 1 + 2 + 3 + 4 + 1 + 2 + 3 + 4 +

G|-----------------------------------------------------------------|
D|-----------------------------------------------------------------|
A|-----------------------------2-2-4-4-4-4-4-4-4-4-----------------|
E|-0-0-0-0-0-0-0-0---4-4-4-4-4-----------------------5-5-5-5-5-5-5-|
   1 + 2 + 3 + 4 + 1 + 2 + 3 + 4 + 1 + 2 + 3 + 4 + 1 + 2 + 3 + 4 +

===========================================================================================

Don't Stop
DROP D TUNING
  
  Intro 0:01
G|-----------------------------------------------------------------|
D|-----------------------------------------------------------------|
A|-----------------------------------------------------------------|
D|-1-1-1-1-1-5-5-6-6-6-6-6---------1-1-1-1-1-5-5-6-6-6-6-6---------|
   1 + 2 + 3 + 4 + 1 + 2 + 3 + 4 + 1 + 2 + 3 + 4 + 1 + 2 + 3 + 4 +

  Verse 0:07
G|-----------------------------------------------------------------|
D|-----------------------------------------------------------------|
A|-----------------------------------------------------------------|
D|-1-1-1-1-1-5-5-6-6-6-6-6---------1-1-1-1-1-5-5-6-6-6-6-6---------|
   1 + 2 + 3 + 4 + 1 + 2 + 3 + 4 + 1 + 2 + 3 + 4 + 1 + 2 + 3 + 4 +

G|-----------------------------------------------------------------|
D|-----------------------------------------------------------------|
A|-----------------------------------------------------------------|
D|-1-1-1-1-1-5-5-6-6-6-6-6---------1-1-1-1-1-5-5-6-6-6-6-6-----10\-|
   1 + 2 + 3 + 4 + 1 + 2 + 3 + 4 + 1 + 2 + 3 + 4 + 1 + 2 + 3 + 4 +

G|-----------------------------------------------------------------|
D|-----------------------------------------------------------------|
A|-------------------------5-5-5-6-------------------------5-5-5-6-|
D|-1-1-1-1-1-5-5-6-6-6-6-6---------1-1-1-1-1-5-5-6-6-6-6-6---------|
   1 + 2 + 3 + 4 + 1 + 2 + 3 + 4 + 1 + 2 + 3 + 4 + 1 + 2 + 3 + 4 +

  Pre-Chorus 0:26
G|-----------------------------------------------------------------|
D|-----------------------------------------------------------------|
A|-----------------------------------------------------------------|
D|-8-8-8-8-8-8-8-8-8-8-8-8-8-8-8-8-8-8-8-8-8-8-8-8-8-8-8-8-8-8-8-\-|
   1 + 2 + 3 + 4 + 1 + 2 + 3 + 4 + 1 + 2 + 3 + 4 + 1 + 2 + 3 + 4 +

  Chorus 0:33 x2
G|-------------------------------------------------------------------|
D|o------------------------------------------------------------------|
A|o-6-6-6-6-6-6-6-6-6-6-6-8-8-8-8-10---------------------------------|
D|-----------------------------------6-6-6-6-6-6-6-6-6-6-6-6-6-6-5-6-|
    1 + 2 + 3 + 4 + 1 + 2 + 3 + 4 +  1 + 2 + 3 + 4 + 1 + 2 + 3 + 4 +

G|------------------------------------------------------------------|
D|-----------------------------------------------------------------o|
A|---------------------------------6-6-6-6-6-6-6-6-----------------o|
D|-8-8-8-8-8-8-8-8-6-6-6-6-6-6-6-5-----------------6-6-7-7-8-8-8-8--|
   1 + 2 + 3 + 4 + 1 + 2 + 3 + 4 + 1 + 2 + 3 + 4 + 1 + 2 + 3 + 4 +

  Verse 0:58
G|-----------------------------------------------------------------|
D|-----------------------------------------------------------------|
A|-----------------------------------------------------------------|
D|-1-1-1-1-1-5-5-6-6-6-6-6---------1-1-1-1-1-5-5-6-6-6-6-6---------|
   1 + 2 + 3 + 4 + 1 + 2 + 3 + 4 + 1 + 2 + 3 + 4 + 1 + 2 + 3 + 4 +

G|-----------------------------------------------------------------|
D|-----------------------------------------------------------------|
A|-------------------------5-5-5-6-------------------------5-5-5-6-|
D|-1-1-1-1-1-5-5-6-6-6-6-6---------1-1-1-1-1-5-5-6-6-6-6-6---------|
   1 + 2 + 3 + 4 + 1 + 2 + 3 + 4 + 1 + 2 + 3 + 4 + 1 + 2 + 3 + 4 +

  Pre-Chorus 1:11
F|-----------------------------------------------------------------|
C|-----------------------------------------------------------------|
G|-----------------------------------------------------------------|
D|-8-8-8-8-8-8-8-8-8-8-8-8-8-8-8-8-8-8-8-8-8-8-8-8-8-8-8-8-8-8-8-\-|
   1 + 2 + 3 + 4 + 1 + 2 + 3 + 4 + 1 + 2 + 3 + 4 + 1 + 2 + 3 + 4 +

  Chorus 1:17
G|-------------------------------------------------------------------|
D|o------------------------------------------------------------------|
A|o-6-6-6-6-6-6-6-6-6-6-6-8-8-8-8-10---------------------------------|
D|-----------------------------------6-6-6-6-6-6-6-6-6-6-6-6-6-6-5-6-|
    1 + 2 + 3 + 4 + 1 + 2 + 3 + 4 +  1 + 2 + 3 + 4 + 1 + 2 + 3 + 4 +

G|------------------------------------------------------------------|
D|-----------------------------------------------------------------o|
A|---------------------------------6-6-6-6-6-6-6-6-----------------o|
D|-8-8-8-8-8-8-8-8-6-6-6-6-6-6-6-5-----------------6-6-7-7-8-8-8-8--|
   1 + 2 + 3 + 4 + 1 + 2 + 3 + 4 + 1 + 2 + 3 + 4 + 1 + 2 + 3 + 4 +

  1:43 Bridge
G|--------------------------------------------------------------------|
D|--------------------------------------------------------------------|
A|--------------------------------------------------------------------|
D|-5-5-5-5-5-5-5-5-5-5-5-5-5-5-5-5-6-6-6-6-6-6-6-6-10-10-10-8-8-8-8-6-|
   1 + 2 + 3 + 4 + 1 + 2 + 3 + 4 + 1 + 2 + 3 + 4 + 1  +  2  + 3 + 4 +

F|-----------------------------------------------------------------|
C|-----------------------------------------------------------------|
G|-----------------------------------------------------------------|
D|-5-5-5-5-5-5-5-5-5-5-5-5-5-5-5-5-8-8-8-8-8-8-8-8-8-8-8-8-8-8-8-8-|
   1 + 2 + 3 + 4 + 1 + 2 + 3 + 4 + 1 + 2 + 3 + 4 + 1 + 2 + 3 + 4 +

  Chorus (Quiet) 1:56
G|------------------------------------------------------------------|
D|------------------------------------------------------------------|
A|------------------------------------------------------------------|
D|------------------------------------------------------------------|
   1 + 2 + 3 + 4 + 1 + 2 + 3 + 4 +  1 + 2 + 3 + 4 + 1 + 2 + 3 + 4 +

G|-----------------------------------------------------------------|
D|-----------------------------------------------------------------|
A|---------------------------------6-6-6-6-6-6-6-6-----------------|
D|-------------------------------------------------6-6-7-7-8-8-8-8-|
   1 + 2 + 3 + 4 + 1 + 2 + 3 + 4 + 1 + 2 + 3 + 4 + 1 + 2 + 3 + 4 +
 
  Chorus 2:09
G|------------------------------------------------------------------|
D|------------------------------------------------------------------|
A|-6-6-6-6-6-6-6-6-6-6-6-8-8-8-8-10---------------------------------|
D|----------------------------------6-6-6-6-6-6-6-6-6-6-6-6-6-6-5-6-|
   1 + 2 + 3 + 4 + 1 + 2 + 3 + 4 +  1 + 2 + 3 + 4 + 1 + 2 + 3 + 4 +

G|-----------------------------------------------------------------|
D|-----------------------------------------------------------------|
A|---------------------------------6-6-6-6-6-6-6-6-----------------|
D|-8-8-8-8-8-8-8-8-6-6-6-6-6-6-6-5-----------------6-6-7-7-8-8-8-8-|
   1 + 2 + 3 + 4 + 1 + 2 + 3 + 4 + 1 + 2 + 3 + 4 + 1 + 2 + 3 + 4 +

G|------------------------------------------------------------------|
D|------------------------------------------------------------------|
A|-6-6-6-6-6-6-6-6-6-6-6-8-8-10-8-----------------------------------|
D|--------------------------------5-6-6-6-6-6-6-6-6-6-6-6-6-6-6-5-6-|
   1 + 2 + 3 + 4 + 1 + 2 + 3 +  4 + 1 + 2 + 3 + 4 + 1 + 2 + 3 + 4 +

G|-----------------------------------------------------------------|
D|-----------------------------------------------------------------|
A|---------------------------------6-6-6-6-6-6-6-6-----------------|
D|-8-8-8-8-8-8-8-8-6-6-6-6-6-6-6-5-----------------6-6-7-7-8-8-8-8-|
   1 + 2 + 3 + 4 + 1 + 2 + 3 + 4 + 1 + 2 + 3 + 4 + 1 + 2 + 3 + 4 +

G|--------------------------------------------------------------------|
D|--------------------------------------------------------------------|
A|-6-6-6-6-8-8-10-10-10-6-6-6-----------------------------------------|
D|----------------------------5-5-5-5-6-6-6-6-6-6-6-6-6-6-6-6-6-6-5-6-|
   1 + 2 + 3 + 4  +  1  + 2 + 3 + 4 + 1 + 2 + 3 + 4 + 1 + 2 + 3 + 4 +

G|-----------------------------------------------------------------|
D|-----------------------------------------------------------------|
A|---------------------------------6-6-6-6-6-6-6-6-----------------|
D|-8-8-8-8-8-8-8-8-6-6-6-6-6-6-6-5-----------------6-6-7-7-8-8-8-8-|
   1 + 2 + 3 + 4 + 1 + 2 + 3 + 4 + 1 + 2 + 3 + 4 + 1 + 2 + 3 + 4 +

G|-----------------|
D|-----------------|
A|-6-\-\-\---------|
D|-----------------|
   1 + 2 + 3 + 4 +

===========================================================================================

Good Girls
IN STANDARD TUNING

  Intro 0:09
G|---------|
D|---------|
A|-5-5-5-\-|
E|---------|
   1 + 2 +

Rest

  Verse 0:10
G|-------------------------------------------------------------------|
D|o-----------------------------------------------------------------o|
A|o-------------------------------------------------------------5---o|
E|-------------------------------------------------------------------|x2
    1 + 2 + 3 + 4 + 1 + 2 + 3 + 4 + 1 + 2 + 3 + 4 + 1 + 2 + 3 + 4 +

G|-----------------------------------------------------------------|
D|-----------------------------------------------------------------|
A|-7-7---------7---------------2-/-4-----------4---------------5---|
E|-----------------7-\-----------------------------5-\---5-5-------|
   1 + 2 + 3 + 4 + 1 + 2 + 3 + 4 + 1 + 2 + 3 + 4 + 1 + 2 + 3 + 4 +

G|-----------------------------------------------------------------|
D|-----------------------------------------------------------------|
A|-7-7---------7---------------2-/-4-----------4-------------------|
E|-----------------7-\-----------------------------5-\-------------|
   1 + 2 + 3 + 4 + 1 + 2 + 3 + 4 + 1 + 2 + 3 + 4 + 1 + 2 + 3 + 4 +

  Chorus 0:37
G|-----------------------------------------------------------------|
D|o---------------------------------------------------------------o|
A|o---------------------------------------------------------------o|
E|--0--0--0-0-----0-7--7--7-7-\---7-4--4--4-4-\---4-5--5--5-5-\----|x2
    Triplet 3 + 4 + Triplet 3 + 4 + Triplet 3 + 4 + Triplet + 4 +

G|-----------------------------------------------------------------|
D|o---------------------------------------------------------------o|
A|o---------------------------------------------------------------o|
E|--0--0----0-------7--7----7-\-----4--4----4-\-----5--5----5-\----|x2
    Triplet 3 + 4 + Triplet 3 + 4 + Triplet 3 + 4 + Triplet + 4 +

  Verse 1:04
G|-----------------------------------------------------------------|
D|-----------------------------------------------------------------|
A|-7-7-7-7-7---------------9-7-6-7-4-4-4-4---------------------5---|
E|-----------5-4-7-7-7-7-7-----------------5-4-2-5-5-5-5-5-5-5-----|
   1 + 2 + 3 + 4 + 1 + 2 + 3 + 4 + 1 + 2 + 3 + 4 + 1 + 2 + 3 + 4 +

G|-----------------------------------------------------------------|
D|-----------------------------------------------------------------|
A|-7-7-7-7-7---------------9-7-6-7-4-4-4-4---------------------5---|
E|-----------5-4-7-7-7-7-7-----------------5-4-2-5-\---------------|
   1 + 2 + 3 + 4 + 1 + 2 + 3 + 4 + 1 + 2 + 3 + 4 + 1 + 2 + 3 + 4 +

G|-----------------------------------------------------------------|
D|-----------------------------------------------------------------|
A|-7-7-7-7-7-7-7-7-2-2-2-2-2-2-2-2-4-4-4-4-4-4-4-4-5-5-5-5-5-5-5-5-|
E|-----------------------------------------------------------------|
   1 + 2 + 3 + 4 + 1 + 2 + 3 + 4 + 1 + 2 + 3 + 4 + 1 + 2 + 3 + 4 +

G|-----------------------------------------------------------------|
D|-----------------------------------------------------------------|
A|-7-7-7-7-7-7-7-7-2-2-2-2-2-2-2-2-4-4-4-4-4-4-4-------------------|
E|-------------------------------------------------5-\-------/-12\-|
   1 + 2 + 3 + 4 + 1 + 2 + 3 + 4 + 1 + 2 + 3 + 4 + 1 + 2 + 3 + 4 +

  Chorus 1:32
G|-----------------------------------------------------------------|
D|o---------------------------------------------------------------o|
A|o---------------------------------------------------------------o|
E|--0--0--0-0-----0-7--7--7-7-\---7-4--4--4-4-\---4-5--5--5-5-\----|x2
    Triplet 3 + 4 + Triplet 3 + 4 + Triplet 3 + 4 + Triplet + 4 +

Rest

  Bridge 1:45
G|---------------------------------------------------------------------|
D|---------------------------------------------------------------------|
A|-5---7---7-2-------4---4---4-----2---7---7-2-------4---4---4-----2---|
E|-----------------------------5-------------------------------5--------|
   4 + 1 + 2 + 3 + 4 + 1 + 2 + 3 + 4 + 1 + 2 + 3 + 4 + 1 + 2 + 3 + 4 +

G|---------------------------------|
D|---------------------------------|
A|-7---7-2-------4---4---4-----2---|
E|-------------------------5-------|
   1 + 2 + 3 + 4 + 1 + 2 + 3 + 4 +

  Pre-Chorus
G|-----------------------------------------------------------------|
D|-2-------------------------------2-------------------------------|
A|-------2---------4-------0-------------2---------4-------0-------|
E|-----------------------------------------------------------------|
   1 + 2 + 3 + 4 + 1 + 2 + 3 + 4 + 1 + 2 + 3 + 4 + 1 + 2 + 3 + 4 +

G|-----------------------------------------------------------------|
D|-------------------------------------------------6-6-6-6-7-7-7-7-|
A|-7-7-7-7-6-6-6-6-4-4-4-4-2-2-2-2-7-7-7-7-9-9-9-9-----------------|
E|-----------------------------------------------------------------|
   1 + 2 + 3 + 4 + 1 + 2 + 3 + 4 + 1 + 2 + 3 + 4 + 1 + 2 + 3 + 4 +

Rest

  2:16 (Listen to the song)
G|-------|
D|-------|
A|-3-3-2-|
E|-------|
  
  2:23
G|---------------------------------------------------------------|
D|---------------------------------------------------------------|
A|---------------------------------------------------------------|
E|-0--0--0-0-----0-7--7--7-7-\---7-4--4--4-4-\---4-5--5--5-5-\---|
   Triplet 3 + 4 + Triplet 3 + 4 + Triplet 3 + 4 + Triplet + 4 +

G|-------------------------------------------------------------------|
D|o-----------------------------------------------------------------o|
A|o-----------------------------------------------------------------o|
E|--0-0-0-0-0-0-0-0-7-7-7-7-7-7-7-7-4-4-4-4-4-4-4-4-5-5-5-5-5-5-5-5--|x4
    1 + 2 + 3 + 4 + 1 + 2 + 3 + 4 + 1 + 2 + 3 + 4 + 1 + 2 + 3 + 4 +

  Outro 2:56
G|-----------------------------------------------------------------|
D|o---------------------------------------------------------------o|
A|o---------------------------------------------------------------o|
E|--0--0----0-------7--7----7-\-----4--4----4-\-----5--5----5-\----|x2
    Triplet 3 + 4 + Triplet 3 + 4 + Triplet 3 + 4 + Triplet + 4 +

G|-----------------------------------------------------------------|
D|-----------------------------------------------------------------|
A|-----------------------------------------------------------------|
E|-0---------------------------------------------------------------|
   1 + 2 + 3 + 4 + 1 + 2 + 3 + 4 + 1 + 2 + 3 + 4 + 1 + 2 + 3 + 4 +

===========================================================================================

Kiss Me Kiss Me
IN STANDARD TUNING

  Intro 0:01
G|-----------------------------------------------------------------|
D|-----------------------------------------------------------------|
A|-3-------3-------------------------------------------------------|
E|---------------------------------1-------1-------3-------3-------|
   1 e + a 2 e + a 3 e + a 4 e + a 1 e + a 2 e + a 3 e + a 4 e + a

G|-----------------------------------------------------------------|
D|-----------------------------------------------------------------|
A|-----3---3-------------------------------------------------------|
E|-1-------------------------------1-------1-------3-------3-------|
   1 e + a 2 e + a 3 e + a 4 e + a 1 e + a 2 e + a 3 e + a 4 e + a

G|-----------------------------------------------------------------|
D|-----------------------------------------------------------------|
A|-3-------3-------7--8--7-5---3-----------------------------------|
E|---------------------------------1-------1-------3-------3-------|
   1 e + a 2 e + a Triplet 4 e + a 1 e + a 2 e + a 3 e + a 4 e + a

G|-----------------------------------------------------------------|
D|-----------------------------------------------------------------|
A|-----3---3-------7--8--7-5---3-----------------------------------|
E|-1-------------------------------1-------1-------3-------3-------|
   1 e + a 2 e + a Triplet 4 e + a 1 e + a 2 e + a 3 e + a 4 e + a

  Verse 0:14
G|-----------------------------------------------------------------|
D|-----------------------------------------------------------------|
A|-----------------------------------------------------------------|
E|-8-\-\-\-\-\-\-\-------------------------------------------------|
   1 + 2 + 3 + 4 + 1 + 2 + 3 + 4 + 1 + 2 + 3 + 4 + 1 + 2 + 3 + 4 +

G|-----------------------------------------------------------------|
D|-----------------------------------------------------------------|
A|---------------------------------------------------------7-7-5-3-|
E|-----------------------------------------------------------------|
   1 + 2 + 3 + 4 + 1 + 2 + 3 + 4 + 1 + 2 + 3 + 4 + 1 + 2 + 3 + 4 +

G|-----------------------------------------------------------------|
D|-------------------------3-3-------------------------------------|
A|-5-3-------------------------3-3-------------------------7-7-5-3-|
E|---------------------------------3-3-----------------------------|
   1 + 2 + 3 + 4 + 1 + 2 + 3 + 4 + 1 + 2 + 3 + 4 + 1 + 2 + 3 + 4 +

G|-----------------------------------------------------------------|
D|-------------------------3-3-------------------------------------|
A|-5-3-------------------------3-3---------------------------------|
E|---------------------------------3-3-----------------------------|
   1 + 2 + 3 + 4 + 1 + 2 + 3 + 4 + 1 + 2 + 3 + 4 + 1 + 2 + 3 + 4 +

  Pre-Chorus 0:40
G|-----------------------------------------------------------------|
D|-----------------------------------------------------------------|
A|-----------------------------------------------------------------|
E|-5-5-5-5-5-5-5-5-7-7-7-7-8-8-8-8-1---------------/-\-------------|
   1 + 2 + 3 + 4 + 1 + 2 + 3 + 4 + 1 + 2 + 3 + 4 + 1 + 2 + 3 + 4 +

  Chorus 0:46
G|-----------------------------------------------------------------|
D|-----------------------------------------------------------------|
A|-3-3-3-3-3-3-3-3-3-3-3-3-3-3-3-3---------------------------------|
E|---------------------------------3-3-3-3-3-3-3-3-3-3-3-3-3-3-3-3-|
   1 + 2 + 3 + 4 + 1 + 2 + 3 + 4 + 1 + 2 + 3 + 4 + 1 + 2 + 3 + 4 +

G|-----------------------------------------------------------------|
D|-----------------------------------------------------------------|
A|-5-5-5-5-5-5-5-5-5-5-5-5-5-5-5-5---------------------------------|
E|---------------------------------1-1-1-1-1-1-1-1-1-1-1-1---------|
   1 + 2 + 3 + 4 + 1 + 2 + 3 + 4 + 1 + 2 + 3 + 4 + 1 + 2 + 3 + 4 +

G|-----------------------------------------------------------------|
D|-----------------------------------------------------------------|
A|-3-3-3-3-3-3-3-3-3-3-3-3-3-3-3-3---------------------------------|
E|---------------------------------3-3-3-3-3-3-3-3-3-3-3-3-3-3-3-3-|
   1 + 2 + 3 + 4 + 1 + 2 + 3 + 4 + 1 + 2 + 3 + 4 + 1 + 2 + 3 + 4 +

G|-----------------------------------------------------------------|
D|---------------------------------------------------------2-2-3-5-|
A|-5-5-5-5-5-5-5-5-5-5-5-5-5-5-5-5---------------------------------|
E|---------------------------------1-1-1-1-1-1-1-1-----------------|
   1 + 2 + 3 + 4 + 1 + 2 + 3 + 4 + 1 + 2 + 3 + 4 + 1 + 2 + 3 + 4 +

  Intro 1:18
G|-----------------------------------------------------------------|
D|-----------------------------------------------------------------|
A|-3-------3-------7--8--7-5---3-----------------------------------|
E|---------------------------------1-------1-------3-------3-------|
   1 e + a 2 e + a Triplet 4 e + a 1 e + a 2 e + a 3 e + a 4 e + a

G|-----------------------------------------------------------------|
D|-----------------------------------------------------------------|
A|-----3---3-------7--8--7-5---3-----------------------------------|
E|-1-------------------------------1-------1-------3-------3-------|
   1 e + a 2 e + a Triplet 4 e + a 1 e + a 2 e + a 3 e + a 4 e + a

  Verse 1:18
G|-----------------------------------------------------------------|
D|-------------------------3-3-------------------------------------|
A|-----------------------------3-3-------------------------7-7-5-3-|
E|-8-\-\-\-\-\-\-\-----------------3-3-----------------------------|
   1 + 2 + 3 + 4 + 1 + 2 + 3 + 4 + 1 + 2 + 3 + 4 + 1 + 2 + 3 + 4 +

G|-----------------------------------------------------------------|
D|-------------------------3-3-3-3-5-5-----------------------------|
A|-5-3-----------------------------------------------------7-7-5-3-|
E|-----------------------------------------------------------------|
   1 + 2 + 3 + 4 + 1 + 2 + 3 + 4 + 1 + 2 + 3 + 4 + 1 + 2 + 3 + 4 +

G|-----------------------------------------------------------------|
D|-------------------------3-3-------------------------------------|
A|-5-3-3-3-3-3-3-3-3-3-3-3-----3-3-------------------------7-7-5-3-|
E|---------------------------------3-3-3-3-3-3-3-3-3-3-3-3---------|
   1 + 2 + 3 + 4 + 1 + 2 + 3 + 4 + 1 + 2 + 3 + 4 + 1 + 2 + 3 + 4 +

G|-----------------------------------------------------------------|
D|-------------------------3-3-------------------------------------|
A|-5-3-3-3-3-3-3-3-3-3-3-3-----3-3---------------------------------|
E|---------------------------------3-3-3-3-3-3-3-3-3-3-3-3-3-3-3-3-|
   1 + 2 + 3 + 4 + 1 + 2 + 3 + 4 + 1 + 2 + 3 + 4 + 1 + 2 + 3 + 4 +

  Pre-Chorus 1:43
G|-----------------------------------------------------------------|
D|-----------------------------------------------------------------|
A|-----------------------------------------------------------------|
E|-5-5-5-5-5-5-5-5-7-7-7-7-8-8-8-8-1-----1-----1---/-/-------------|
   1 + 2 + 3 + 4 + 1 + 2 + 3 + 4 + 1 + 2 + 3 + 4 + 1 + 2 + 3 + 4 +

  Chorus 1:50
G|-----------------------------------------------------------------|
D|-----------------------------------------------------------------|
A|-3-3-3-3-3-3-3-3-3-3-3-3-3-3-3-3---------------------------------|
E|---------------------------------3-3-3-3-3-3-3-3-3-3-3-3-3-3-3-3-|
   1 + 2 + 3 + 4 + 1 + 2 + 3 + 4 + 1 + 2 + 3 + 4 + 1 + 2 + 3 + 4 +

G|-----------------------------------------------------------------|
D|-----------------------------------------------------------------|
A|-5-5-5-5-5-5-5-5-5-5-5-5-5-5-5-5---------------------------------|
E|---------------------------------1-1-1-1-1-1-1-1-1-1-1-1---------|
   1 + 2 + 3 + 4 + 1 + 2 + 3 + 4 + 1 + 2 + 3 + 4 + 1 + 2 + 3 + 4 +

G|-----------------------------------------------------------------|
D|-----------------------------------------------------------------|
A|-3-3-3-3-3-3-3-3-3-3-3-3-3-3-3-3---------------------------------|
E|---------------------------------3-3-3-3-3-3-3-3-3-3-3-3-3-3-3-3-|
   1 + 2 + 3 + 4 + 1 + 2 + 3 + 4 + 1 + 2 + 3 + 4 + 1 + 2 + 3 + 4 +

G|-----------------------------------------------------------------|
D|-----------------------------------------------------------------|
A|-5-5-5-5-5-5-5-5-5-5-5-5-5-5-5-5-8-8-8-8-8-8-8-8-8-8-8-8-8-8-8-8-|
E|-----------------------------------------------------------------|
   1 + 2 + 3 + 4 + 1 + 2 + 3 + 4 + 1 + 2 + 3 + 4 + 1 + 2 + 3 + 4 +

  Bridge 2:15
G|-------------------------------------------------------------------|
D|o-----------------------------------------------------------------o|
A|o---------------------------/-8---7--7--7-7-------7--7--7-7-------o|
E|--1--1--1-1-------1--1--1-1-----------------------------------8----|x2
    Triplet 3 + 4 + Triplet 3 + 4 + Triplet 3 + 4 + Triplet 3 + 4 +

G|-----------------------------------------------------------------|
D|-----------------------------------------------------------------|
A|-----------------------------------------------------------------|
E|-1--1--1---------1--1--1---------0--0--0---------0--0--0-------/-|
   Triplet 3 + 4 + Triplet 3 + 4 + Triplet 3 + 4 + Triplet 3 + 4 +

G|-----------------------------------------------------------------|
D|-----------------------------------------------------------------|
A|---------8---------------8---------------7-----------------------|
E|-1--1--1---------1--1--1---------0--0--0---------0--0--0---------|
   Triplet 3 + 4 + Triplet 3 + 4 + Triplet 3 + 4 + Triplet 3 + 4 +

Rest

  Chorus 2:44
G|-----------------------------------------------------------------|
D|-----------------------------------------------------------------|
A|-----------------------------------------------------------------|
E|---------------------------------3-3-3-3-3-3-3-3-3-3-3-3-3-3-3-3-|
   1 + 2 + 3 + 4 + 1 + 2 + 3 + 4 + 1 + 2 + 3 + 4 + 1 + 2 + 3 + 4 +

G|-----------------------------------------------------------------|
D|-----------------------------------------------------------------|
A|-5-5-5-5-5-5-5-5-5-5-5-5-5-5-5-5---------------------------------|
E|---------------------------------1-1-1-1-1-1-1-1-1-1-1-1---------|
   1 + 2 + 3 + 4 + 1 + 2 + 3 + 4 + 1 + 2 + 3 + 4 + 1 + 2 + 3 + 4 +

G|-----------------------------------------------------------------|
D|-----------------------------------------------------------------|
A|-3-3-3-3-3-3-3-3-3-3-3-3-3-3-3-3-2-2-2-2-2-2-2-2-2-2-2-2-2-2-2-2-|
E|-----------------------------------------------------------------|
   1 + 2 + 3 + 4 + 1 + 2 + 3 + 4 + 1 + 2 + 3 + 4 + 1 + 2 + 3 + 4 +

G|-----------------------------------------------------------------|
D|---------------------------------------------------------2-2-3-5-|
A|-5-5-5-5-7-7-7-7-8-8-8-8-7---5-----------------------------------|
E|---------------------------------1-1-1-1-1-1-1-1-----------------|
   1 + 2 + 3 + 4 + 1 + 2 + 3 + 4 + 1 + 2 + 3 + 4 + 1 + 2 + 3 + 4 +

  Outro 3:07
G|-----------------------------------------------------------------|
D|-----------------------------------------------------------------|
A|-3-------3-------7--8--7-5---3-----------------------------------|
E|---------------------------------1-------1-------3-------3-------|
   1 e + a 2 e + a Triplet 4 e + a 1 e + a 2 e + a 3 e + a 4 e + a

G|-----------------------------------------------------------------|
D|-----------------------------------------------------------------|
A|-----3---3-------7--8--7-5---3-----------------------------------|
E|-1-------------------------------1-------1-------3-------3-------|
   1 e + a 2 e + a Triplet 4 e + a 1 e + a 2 e + a 3 e + a 4 e + a

G|-----------------------------------------------------------------|
D|-----------------------------------------------------------------|
A|-3-------3-------7--8--7-5---3-----------------------------------|
E|---------------------------------1-------1-------3-------3-------|
   1 e + a 2 e + a Triplet 4 e + a 1 e + a 2 e + a 3 e + a 4 e + a

G|-----------------------------------------------------------------|
D|-----------------------------------------------------------------|
A|-----3---3-------7--8--7-5---3-----------------------------------|
E|-1-------------------------------1-------1-------3-------3-------|
   1 e + a 2 e + a Triplet 4 e + a 1 e + a 2 e + a 3 e + a 4 e + a

G|-----------------------------------------------------------------|
D|-----------------------------------------------------------------|
A|-----------------------------------------------------------------|
E|-8-\-\-\-\-\-\-\-------------------------------------------------|
   1 + 2 + 3 + 4 + 1 + 2 + 3 + 4 + 1 + 2 + 3 + 4 + 1 + 2 + 3 + 4 +

===========================================================================================

18
IN STANDARD TUNING

  Intro 0:06
G|-----------------------------------------------------------------|
D|-----------------------------------------------------------------|
A|-----------------------------------------------------------------|
E|-5---5---5---5---2---2---3---3---5---5---5---5---2---2---3---3---|
   1 + 2 + 3 + 4 + 1 + 2 + 3 + 4 + 1 + 2 + 3 + 4 + 1 + 2 + 3 + 4 +

  Verse 0:12
G|-----------------------------------------------------------------|
D|-----------------------------------------------------------------|
A|-----------------------------------------------------------------|
E|-5-5-------------2---2---3---3---5-5-------------2---2---3---3---|
   1 + 2 + 3 + 4 + 1 + 2 + 3 + 4 + 1 + 2 + 3 + 4 + 1 + 2 + 3 + 4 +

G|-----------------------------------------------------------------|
D|-----------------------------------------------------------------|
A|---------------------------------3-3-3-3-3-3-3---------5---5-5-7-|
E|-5-5-------------2---2---3---3-----------------3---3-------------|
   1 + 2 + 3 + 4 + 1 + 2 + 3 + 4 + 1 + 2 + 3 + 4 + 1 + 2 + 3 + 4 +

G|-----------------------------------------------------------------|
D|-----------------------------------------------------------------|
A|-----------------------------------------------------------------|
E|-5-5-5---5---5---2-2-2---3---3---5-5-5---5---5---2-2-2---3---3---|
   1 + 2 + 3 + 4 + 1 + 2 + 3 + 4 + 1 + 2 + 3 + 4 + 1 + 2 + 3 + 4 +

G|-----------------------------------------------------------------|
D|-----------------------------------------------------------------|
A|---------------------------------3-3-3-3-3-3-3---------5---5-5-7-|
E|-5-5-5---5---5---2-2-2---3---3-----------------3---3-------------|
   1 + 2 + 3 + 4 + 1 + 2 + 3 + 4 + 1 + 2 + 3 + 4 + 1 + 2 + 3 + 4 +

  Pre-Chorus 0:37
G|-----------------------------------------------------------------|
D|-----------------------------------------------------------------|
A|-----------------------------------------------------------------|
E|-0-------------------------------3-3-3-3-3-3-3-3-5-5-5-5-5-5-5-5-|
   1 + 2 + 3 + 4 + 1 + 2 + 3 + 4 + 1 + 2 + 3 + 4 + 1 + 2 + 3 + 4 +

  Chorus
G|-----------------------------------------------------------------|
D|-----------------------------------------------------------------|
A|-5-5-5-5-5-5-5-5-5-5-5-5-5-5-5-5---------------------------------|
E|---------------------------------5-5-5-5-5-5-5-5-5-5-5-5-5-5-5-5-|
   1 + 2 + 3 + 4 + 1 + 2 + 3 + 4 + 1 + 2 + 3 + 4 + 1 + 2 + 3 + 4 +

G|-----------------------------------------------------------------|
D|-----------------------------------------------------------------|
A|-----------------------------------------------------------------|
E|-0-0-0-0-0-0-0-0-0-0-0-0-0-0-0-0-3-3-3-3-3-3-3-3-3-3-3-3-3-3-3-3-|
   1 + 2 + 3 + 4 + 1 + 2 + 3 + 4 + 1 + 2 + 3 + 4 + 1 + 2 + 3 + 4 +

G|-----------------------------------------------------------------|
D|-----------------------------------------------------------------|
A|-----------------------------------------------------------------|
E|-5-5-5-5-5-5-5---2-2-2---3-3-3-3-5-5-5-5-5-5-5---2---2---3---3---|
   1 + 2 + 3 + 4 + 1 + 2 + 3 + 4 + 1 + 2 + 3 + 4 + 1 + 2 + 3 + 4 +

  Verse 1:01
G|-----------------------------------------------------------------|
D|-----------------------------------------------------------------|
A|-----------------------------------------------------------------|
E|-5-5-------------2---2---3---3---5-5-------------2---2---3---3---|
   1 + 2 + 3 + 4 + 1 + 2 + 3 + 4 + 1 + 2 + 3 + 4 + 1 + 2 + 3 + 4 +

G|-----------------------------------------------------------------|
D|-----------------------------------------------------------------|
A|---------------------------------3-3-3-3-3-3-3---------5---5-5-7-|
E|-5-5-------------2---2---3---3-----------------3---3-------------|
   1 + 2 + 3 + 4 + 1 + 2 + 3 + 4 + 1 + 2 + 3 + 4 + 1 + 2 + 3 + 4 +

G|-----------------------------------------------------------------|
D|-----------------------------------------------------------------|
A|-----------------------------------------------------------------|
E|-5-5-5---5---5---2-2-2---3---3---5-5-5---5---5---2-2-2---3---3---|
   1 + 2 + 3 + 4 + 1 + 2 + 3 + 4 + 1 + 2 + 3 + 4 + 1 + 2 + 3 + 4 +

G|-----------------------------------------------------------------|
D|-----------------------------------------------------------------|
A|---------------------------------3-3-3-3-3-3-3---------5---5-5-7-|
E|-5-5-5---5---5---2-2-2---3---3-----------------3---3-------------|
   1 + 2 + 3 + 4 + 1 + 2 + 3 + 4 + 1 + 2 + 3 + 4 + 1 + 2 + 3 + 4 +

  Pre-Chorus 1:24 
G|-----------------------------------------------------------------|
D|-----------------------------------------------------------------|
A|-----------------------------------------------------------------|
E|-0-------------------------------3---3---3---3---5-5-5-5-5-5-5-5-|
   1 + 2 + 3 + 4 + 1 + 2 + 3 + 4 + 1 + 2 + 3 + 4 + 1 + 2 + 3 + 4 +

  Chorus
G|-----------------------------------------------------------------|
D|-----------------------------------------------------------------|
A|-5-5-5-5-5-5-5-5-5-5-5-5-5-5-5-5---------------------------------|
E|---------------------------------5-5-5-5-5-5-5-5-5-5-5-5-5-5-5-5-|
   1 + 2 + 3 + 4 + 1 + 2 + 3 + 4 + 1 + 2 + 3 + 4 + 1 + 2 + 3 + 4 +

G|-----------------------------------------------------------------|
D|-----------------------------------------------------------------|
A|-----------------------------------------------------------------|
E|-0-0-0-0-0-0-0-0-0-0-0-0-0-0-0-0-3-3-3-3-3-3-3-3-3-3-3-3-3-3-3-3-|
   1 + 2 + 3 + 4 + 1 + 2 + 3 + 4 + 1 + 2 + 3 + 4 + 1 + 2 + 3 + 4 +

G|-----------------------------------------------------------------|
D|-----------------7-7-5-5-------------------------7-7-5-5---------|
A|-5-5-5-5-5-5-5-5---------7-7-5-5-------------------------7-7-5-5-|
E|---------------------------------5-5-5-5-5-5-5-5-----------------|
   1 + 2 + 3 + 4 + 1 + 2 + 3 + 4 + 1 + 2 + 3 + 4 + 1 + 2 + 3 + 4 +

G|-----------------------------------------------------------------|
D|-----------------7-7-5-5-----------------------------------------|
A|-------------------------7-7-5-5---------------------------------|
E|-0-0-0-0-0-0-0-0-----------------3-3-3-3-3-3-3-3-3-3-3-3-3-3-3-3-|
   1 + 2 + 3 + 4 + 1 + 2 + 3 + 4 + 1 + 2 + 3 + 4 + 1 + 2 + 3 + 4 +

  Bridge
G|-------------------------------------------------------------------|
D|o-----------------------------------------------------------------o|
A|o-2-2-2-4-4-4-5-5-5-------7-7-5-5---------------------------------o|
E|--------------------3-3-3---------7-\------------------------------|x3
    1 + 2 + 3 + 4 + 1 + 2 + 3 + 4 + 1 + 2 + 3 + 4 + 1 + 2 + 3 + 4 +

G|-----------------------------------------------------------------|
D|-----------------------------------------------------------------|
A|-2-2-2-4-4-4-5-5-5-----------------------------------------------|
E|-------------------3-3-3-x-x-x-x-0-0-0-0-0-0-0-0-0-0-0-0-0-0-0-0-|
   1 + 2 + 3 + 4 + 1 + 2 + 3 + 4 + 1 + 2 + 3 + 4 + 1 + 2 + 3 + 4 + 

G|-----------------------------------------------------------------|
D|-----------------------------------------------------------------|
A|-----------------------------------------------------------------|
E|-3-3-3-3-3-3-3-3-3-3-3-3-3-3-3-3---------------------------------|
   1 + 2 + 3 + 4 + 1 + 2 + 3 + 4 + 1 + 2 + 3 + 4 + 1 + 2 + 3 + 4 +

G|---------------------------------|
D|---------------------------------|
A|---------------------------------|
E|-5---5---5---5---2---2---3---3---|
   1 + 2 + 3 + 4 + 1 + 2 + 3 + 4 +

  Chorus
G|-----------------------------------------------------------------|
D|-----------------------------------------------------------------|
A|-5-5-5-5-5-5-5-5-5-5-5-5-5-5-5-5---------------------------------|
E|---------------------------------5-5-5-5-5-5-5-5-5-5-5-5-5-5-5-5-|
   1 + 2 + 3 + 4 + 1 + 2 + 3 + 4 + 1 + 2 + 3 + 4 + 1 + 2 + 3 + 4 +

G|-----------------------------------------------------------------|
D|-----------------------------------------------------------------|
A|-----------------------------------------------------------------|
E|-0-0-0-0-0-0-0-0-0-0-0-0-0-0-0-0-3-3-3-3-3-3-3-3-3-3-3-3-3-3-3-3-|
   1 + 2 + 3 + 4 + 1 + 2 + 3 + 4 + 1 + 2 + 3 + 4 + 1 + 2 + 3 + 4 +

  Outro
G|-----------------------------------------------------------------|
D|-----------------------------------------------------------------|
A|-5---5---5---5---5---5---5---5---4---4---4---4---4---4---4---4---|
E|-----------------------------------------------------------------|
   1 + 2 + 3 + 4 + 1 + 2 + 3 + 4 + 1 + 2 + 3 + 4 + 1 + 2 + 3 + 4 +

G|-----------------------------------------------------------------|
D|-----------------------------------------------------------------|
A|-----------------7---7---7---7-----------------------------------|
E|-0---0---0---0-------------------3---3---3---3---5---5---5---5---|
   1 + 2 + 3 + 4 + 1 + 2 + 3 + 4 + 1 + 2 + 3 + 4 + 1 + 2 + 3 + 4 +

G|-----------------------------------|
D|-----------------------------------|
A|-----------------------------------|
E|-3---3---3---3-/-15---15---15---15-|

G|-----------------------------------------------------------------|
D|-----------------------------------------------------------------|
A|-5-----------------------------/-17------------------------------|
E|-----------------------------------------------------------------|
   1 + 2 + 3 + 4 + 1 + 2 + 3 + 4 + 1 + 2 + 3 + 4 + 1 + 2 + 3 + 4 +

===========================================================================================

Everything I Didn't Say
IN DROP D TUNING

  Chorus 0:33
G|-----------------------------------------------------------------|
D|-----------------------------------------------------------------|
A|-------------------------------------------------5-5-5-5-5-5-----|
D|-7-7-7-7-7-7-7-7-2-2-2-2-2-2-2-2-4-4-4-4-4-4-4-4-----------------|
   1 + 2 + 3 + 4 + 1 + 2 + 3 + 4 + 1 + 2 + 3 + 4 + 1 + 2 + 3 + 4 +

G|-----------------------------------------------------------------|
D|-----------------------------------------------------------------|
A|-------------------------------------------------5---------------|
D|-7-7-7-7-7-7-7-7-2-2-2-2-2-2-2-2-4-4-4-4-4-4-4-4-----------------|
   1 + 2 + 3 + 4 + 1 + 2 + 3 + 4 + 1 + 2 + 3 + 4 + 1 + 2 + 3 + 4 +

Rest

  Verse 1:17
G|-----------------------------------------------------------------|
D|-----------------------------------------------------------------|
A|-----------------5-----------------------------------------------|
D|-7-------6-----------------------7-------6-----------------------|
   1 + 2 + 3 + 4 + 1 + 2 + 3 + 4 + 1 + 2 + 3 + 4 + 1 + 2 + 3 + 4 +

  Chorus 1:27
G|-----------------------------------------------------------------|
D|-----------------------------------------------------------------|
A|-------------------------------------------------5-5-5-5-5-5-----|
D|-7-7-7-7-7-7-7-7-2-2-2-2-2-2-2-2-4-4-4-4-4-4-4-4-----------------|
   1 + 2 + 3 + 4 + 1 + 2 + 3 + 4 + 1 + 2 + 3 + 4 + 1 + 2 + 3 + 4 +

G|-----------------------------------------------------------------|
D|-----------------------------------------------------------------|
A|-------------------------------------------------5---------------|
D|-7-7-7-7-7-7-7-7-2-2-2-2-2-2-2-2-4-4-4-4-4-4-4-4-----------------|
   1 + 2 + 3 + 4 + 1 + 2 + 3 + 4 + 1 + 2 + 3 + 4 + 1 + 2 + 3 + 4 +

  Bridge 1:49
G|-----------------------------------------------------------------|
D|--------------------------7--7-7---------------------------------|
A|-----------------5-5-5-5-5--5-5-5--------------------------------|
D|-7-7-----6-6---------------------4-4-----6-6-----0-0-0-0-0-0-0-0-|
   1 + 2 + 3 + 4 + 1 + 2 + 3 + 4 + 1 + 2 + 3 + 4 + 1 + 2 + 3 + 4 +

G|-----------------------------------------------------------------|
D|-------------------------4-4-6-6---------------------------------|
A|-----------------5-5-7-7-------------------------5---------------|
D|-7-7-----6-6---------------------4-4-----6-6---------------------|
   1 + 2 + 3 + 4 + 1 + 2 + 3 + 4 + 1 + 2 + 3 + 4 + 1 + 2 + 3 + 4 +

  Chorus 2:14
G|-----------------------------------------------------------------|
D|-----------------------------------------------------------------|
A|-------------------------------------------------5-5-5-5-5-5-----|
D|-----------------2-2-2-2-2-2-2-2-4-4-4-4-4-4-4-4-----------------|
   1 + 2 + 3 + 4 + 1 + 2 + 3 + 4 + 1 + 2 + 3 + 4 + 1 + 2 + 3 + 4 +

G|-----------------------------------------------------------------|
D|-----------------------------------------------------------------|
A|-------------------------------------------------5---------------|
D|-7-7-7-7-7-7-7-7-6-6-6-6-6-6-6-6-4-4-4-4-4-4-4-4-----------------|
   1 + 2 + 3 + 4 + 1 + 2 + 3 + 4 + 1 + 2 + 3 + 4 + 1 + 2 + 3 + 4 +

===========================================================================================

Beside You
IN DROP D TUNING

 Verse 0:12
G|-----------------------------------------------------------------|
D|-----------------------------------------------------------------|
A|-----------------------------------------------------------------|
D|-9-9-----------9-7-7-----------7-5-5-------------5-5-5---5-5-7-7-|
   1 + 2 + 3 + 4 + 1 + 2 + 3 + 4 + 1 + 2 + 3 + 4 + 1 + 2 + 3 + 4 +

G|-----------------------------------------------------------------|
D|-----------------------------------------------------------------|
A|-----------------------------------------------------------------|
D|-9-9-----------9-7-7-----------7-5-5-------------5-5-------------|
   1 + 2 + 3 + 4 + 1 + 2 + 3 + 4 + 1 + 2 + 3 + 4 + 1 + 2 + 3 + 4 +

G|-----------------------------------------------------------------|
D|-----------------------------------------------------------------|
A|-----------------------------------------------------------------|
D|-9-9-----------9-7-7-----------7-5-5-------------5-5-5---5-5-7-7-|
   1 + 2 + 3 + 4 + 1 + 2 + 3 + 4 + 1 + 2 + 3 + 4 + 1 + 2 + 3 + 4 +

G|-----------------------------------------------------------------|
D|-----------------------------------------------------------------|
A|-----------------------------------------------------------------|
D|-9-9-----------9-7-7-----------7-5-------------------------------|
   1 + 2 + 3 + 4 + 1 + 2 + 3 + 4 + 1 + 2 + 3 + 4 + 1 + 2 + 3 + 4 +

  Pre-Chorus 0:37
G|-------------------------------------------------------------------|
D|o-----------------------------------------------------------------o|
A|o-----------------------------------------------------------------o|
D|--9-9-----------9-7-7-7-----------5--------------------------------|
    1 + 2 + 3 + 4 + 1 + 2 + 3 + 4 + 1 + 2 + 3 + 4 + 1 + 2 + 3 + 4 +

  Chorus 0:50
G|-----------------------------------------------------------------|
D|-----------------------------------------------------------------|
A|-----------------------------------------------------------------|
D|-0---0-0-0---0---0-0-0---0---0---5---5-5-5---5---5-5-5---5---5---|
   1 + 2 + 3 + 4 + 1 + 2 + 3 + 4 + 1 + 2 + 3 + 4 + 1 + 2 + 3 + 4 +

G|-----------------------------------------------------------------|
D|-----------------------------------------------------------------|
A|-2---2---2-2-2-/-5---5---5-5-5-----------------------------------|
D|---------------------------------5---5-5-5---5---5---5---5-5-5---|
   1 + 2 + 3 + 4 + 1 + 2 + 3 + 4 + 1 + 2 + 3 + 4 + 1 + 2 + 3 + 4 +

G|-----------------------------------------------------------------|
D|-----------------------------------------------------------------|
A|-----------------------------------------------------------------|
D|-0---0-0-0---0---0-0-0---0---0---5---5-5-5---5---5-5-5---5---5---|
   1 + 2 + 3 + 4 + 1 + 2 + 3 + 4 + 1 + 2 + 3 + 4 + 1 + 2 + 3 + 4 +

G|-----------------------------------------------------------------|
D|-----------------------------------------------------------------|
A|-2---2---2-2-2-/-5---5---5-5-5-----------------------------------|
D|---------------------------------5---5-5-5---5-------------------|
   1 + 2 + 3 + 4 + 1 + 2 + 3 + 4 + 1 + 2 + 3 + 4 + 1 + 2 + 3 + 4 +

  Verse 1:18
G|-----------------------------------------------------------------|
D|-----------------------------------------------------------------|
A|-----------------------------------------------------------------|
D|-9-9-------------7-7-------------5-5-------------5-5-5---5-5-7-7-|
   1 + 2 + 3 + 4 + 1 + 2 + 3 + 4 + 1 + 2 + 3 + 4 + 1 + 2 + 3 + 4 +

G|-----------------------------------------------------------------|
D|-----------------------------------------------------------------|
A|-----------------------------------------------------------------|
D|-9-9-------------7-7-------------5-5-------------5-5-------------|
   1 + 2 + 3 + 4 + 1 + 2 + 3 + 4 + 1 + 2 + 3 + 4 + 1 + 2 + 3 + 4 +

  Pre-Chorus 1:31
G|-----------------------------------------------------------------|
D|-----------------------------------------------------------------|
A|-----------------------------------------------------------------|
D|-9-9-----------9-7-7-7-----------5-------------------------------|
   1 + 2 + 3 + 4 + 1 + 2 + 3 + 4 + 1 + 2 + 3 + 4 + 1 + 2 + 3 + 4 +

G|-----------------------------------------------------------------|
D|-----------------------------------------------------------------|
A|-----------------------------------------------------------------|
D|-9-9-----------9-7-7-7-----------5---5---5---5---5-5-5-5-5-5-5-5-|
   1 + 2 + 3 + 4 + 1 + 2 + 3 + 4 + 1 + 2 + 3 + 4 + 1 + 2 + 3 + 4 +

  Chorus 1:43
G|-----------------------------------------------------------------|
D|-----------------------------------------------------------------|
A|-----------------------------------------------------------------|
D|-0---0-0-0---0---0-0-0---0---0---5---5-5-5---5---5-5-5---5---5---|
   1 + 2 + 3 + 4 + 1 + 2 + 3 + 4 + 1 + 2 + 3 + 4 + 1 + 2 + 3 + 4 +

G|-----------------------------------------------------------------|
D|-----------------------------------------------------------------|
A|-2---2---2-2-2-/-5---5---5-5-5-----------------------------------|
D|---------------------------------5---5-5-5---5---5---5---5-5-5---|
   1 + 2 + 3 + 4 + 1 + 2 + 3 + 4 + 1 + 2 + 3 + 4 + 1 + 2 + 3 + 4 +

G|-----------------------------------------------------------------|
D|-----------------------------------------------------------------|
A|-----------------------------------------------------------------|
D|-0---0-0-0---0---0-0-0---0---0---5---5-5-5---5---5-5-5---5---5---|
   1 + 2 + 3 + 4 + 1 + 2 + 3 + 4 + 1 + 2 + 3 + 4 + 1 + 2 + 3 + 4 +

G|-----------------------------------------------------------------|
D|-----------------------------------------------------------------|
A|-2---2---2-2-2-/-5---5---5-5-5-----------------------------------|
D|---------------------------------5---5-5-5---5---5---5-----------|
   1 + 2 + 3 + 4 + 1 + 2 + 3 + 4 + 1 + 2 + 3 + 4 + 1 + 2 + 3 + 4 +

  Solo 2:08
G|-----------------------------------------------------------------|
D|-----------------------------------------------------------------|
A|-----------------------------------------------------------------|
D|-0---0---0---0---0---0---0---0---5---5---5---5---5---5---5---5---|
   1 + 2 + 3 + 4 + 1 + 2 + 3 + 4 + 1 + 2 + 3 + 4 + 1 + 2 + 3 + 4 +

G|-----------------------------------------------------------------|
D|-----------------------------------------------------------------|
A|-2---2---2---2---5---5---5---5-----------------------------------|
D|---------------------------------5---5---5---5---5---5---5---5---|
   1 + 2 + 3 + 4 + 1 + 2 + 3 + 4 + 1 + 2 + 3 + 4 + 1 + 2 + 3 + 4 +

  Bridge 2:21
G|-----------------------------------------------------------------|
D|-----------------------------------------------------------------|
A|-----------------------------------------------------------------|
D|-7---7---7---7---7---7---7---7---5---5---5---5---5---5---5---5---|
   1 + 2 + 3 + 4 + 1 + 2 + 3 + 4 + 1 + 2 + 3 + 4 + 1 + 2 + 3 + 4 +

G|-----------------------------------------------------------------|
D|-----------------------------------------------------------------|
A|-2---2---2---2---2---2---2---2-----------------------------------|
D|---------------------------------2-------4-------5-------7-------|
   1 + 2 + 3 + 4 + 1 + 2 + 3 + 4 + 1 + 2 + 3 + 4 + 1 + 2 + 3 + 4 +

  Chorus 2:34
G|-----------------------------------------------------------------|
D|-----------------------------------------------------------------|
A|-----------------------------------------------------------------|
D|-0-------------------------------5-------------------------------|
   1 + 2 + 3 + 4 + 1 + 2 + 3 + 4 + 1 + 2 + 3 + 4 + 1 + 2 + 3 + 4 +

G|-----------------------------------------------------------------|
D|-----------------------------------------------------------------|
A|-2---------------5-----------------------------------------------|
D|---------------------------------5---5---5---5---5---5---5---5---|
   1 + 2 + 3 + 4 + 1 + 2 + 3 + 4 + 1 + 2 + 3 + 4 + 1 + 2 + 3 + 4 +

G|-----------------------------------------------------------------|
D|-----------------------------------------------------------------|
A|-----------------------------------------------------------------|
D|-0---0-0-0---0---0-0-0---0---0---5---5-5-5---5---5-5-5---5---5---|
   1 + 2 + 3 + 4 + 1 + 2 + 3 + 4 + 1 + 2 + 3 + 4 + 1 + 2 + 3 + 4 +

G|-----------------------------------------------------------------|
D|-----------------------------------------------------------------|
A|-2---2---2-2-2-/-5---5---5-5-5-----------------------------------|
D|---------------------------------5---5-5-5---5---5---5---5-5-5---|
   1 + 2 + 3 + 4 + 1 + 2 + 3 + 4 + 1 + 2 + 3 + 4 + 1 + 2 + 3 + 4 +

G|-----------------------------------------------------------------|
D|-----------------------------------------------------------------|
A|-----------------------------------------------------------------|
D|-0---0-0-0---0---0-0-0---0---0---5---5-5-5---5---5-5-5---5---5---|
   1 + 2 + 3 + 4 + 1 + 2 + 3 + 4 + 1 + 2 + 3 + 4 + 1 + 2 + 3 + 4 +

G|-----------------------------------------------------------------|
D|-----------------------------------------------------------------|
A|-2---2---2-2-2-/-5---5---5-5-5-----------------------------------|
D|---------------------------------2-------4-------5-------7-------|
   1 + 2 + 3 + 4 + 1 + 2 + 3 + 4 + 1 + 2 + 3 + 4 + 1 + 2 + 3 + 4 +
  
  Outro 3:24
G|-----------------------------------------------------------------|
D|-----------------------------------------------------------------|
A|-----------------------------------------------------------------|
D|-0-------------------------------5-------------------------------|
   1 + 2 + 3 + 4 + 1 + 2 + 3 + 4 + 1 + 2 + 3 + 4 + 1 + 2 + 3 + 4 +

G|-----------------------------------------------------------------|
D|-----------------------------------------------------------------|
A|-2---------------5-----------------------------------------------|
D|---------------------------------5-------------------------------|
   1 + 2 + 3 + 4 + 1 + 2 + 3 + 4 + 1 + 2 + 3 + 4 + 1 + 2 + 3 + 4 +

===========================================================================================

End Up Here
IN DROP D TUNING

Intro 0:04
G|-----------------------------------------------------------------|
D|-----------------------------------------------------------------|
A|-----------------1-1-1-1-1-1-1-1-------------------2-2-2---1-1-1-|
D|-1-1-1-1-1-1-1-1-----------------6-6-6-6-6-6-6-6-----------------|
   1 + 2 + 3 + 4 + 1 + 2 + 3 + 4 + 1 + 2 + 3 + 4 + 1 + 2 + 3 + 4 +

G|-----------------------------------------------------------------|
D|-----------------------------------------------------------------|
A|-----------------1-1-1-1-1-1-1-1-------------------------2-2-1-1-|
D|-1-1-1-1-1-1-1-1-----------------6-6-6-6-6-6-6-6-6-6-6-6---------|
   1 + 2 + 3 + 4 + 1 + 2 + 3 + 4 + 1 + 2 + 3 + 4 + 1 + 2 + 3 + 4 +

Rest

  0:29 Verse
G|-----------------------------------------------------------------|
D|-----------------------------------------------------------------|
A|---------------------1-----1-------------------------------------|
D|-----1-----1-------------------------5-----5-------6-----6-------|
   1 + 2 + 3 + 4 + 1 + 2 + 3 + 4 + 1 + 2 + 3 + 4 + 1 + 2 + 3 + 4 +

G|-----------------------------------------------------------------|
D|-----------------------------------------------------------------|
A|---------------------1-----1-------------------------------------|
D|-----1-----1-------------------------5-----5-5-5-5-5-5-5-5-5-5-5-|
   1 + 2 + 3 + 4 + 1 + 2 + 3 + 4 + 1 + 2 + 3 + 4 + 1 + 2 + 3 + 4 +

  Chorus 0:43
G|-------------------------------------------------------------------|
D|o-----------------------------------------------------------------o|
A|o-----------------1-1-1-1-1-1-1-1-3-3-3-3-3-3-3-3-----------------o|
D|--1-1-1-1-1-1-1-1---------------------------------6-6-6-6-6-6-6-6--|
    1 + 2 + 3 + 4 + 1 + 2 + 3 + 4 + 1 + 2 + 3 + 4 + 1 + 2 + 3 + 4 +

G|-----------------------------------------------------------------|
D|-------------3-3-------------------------------------------------|
A|-3-3-3-6-6-6-----1-1-1-1-5-5-6-6---------------------------------|
D|---------------------------------1-1-1-1-1-1-1-1-6-6-6-6-6-6-6-6-|
   1 + 2 + 3 + 4 + 1 + 2 + 3 + 4 + 1 + 2 + 3 + 4 + 1 + 2 + 3 + 4 +

G|-----------------------------------------------------------------|
D|-----------------------------------------------------------------|
A|-1-1-3-3-5-5-6-6---------5-5-6-6---------------------------------|
D|-----------------6-6-6-6---------8---8---8-8-8-8-----------------|
   1 + 2 + 3 + 4 + 1 + 2 + 3 + 4 + 1 + 2 + 3 + 4 + 1 + 2 + 3 + 4 +

  Intro
G|-----------------------------------------------------------------|
D|-----------------------------------------------------------------|
A|-----------------1-1-1-1-1-1-1-1-----------------2-2-2-2-2-1-1-1-|
D|-1-1-1-1-1-1-1-1-----------------6-6-6-6-6-6-6-6-----------------|
   1 + 2 + 3 + 4 + 1 + 2 + 3 + 4 + 1 + 2 + 3 + 4 + 1 + 2 + 3 + 4 +

Rest

  Verse 1:27
G|-----------------------------------------------------------------|
D|-----------------------------------------------------------------|
A|---------------------1-----1-------------------------------------|
D|-----1-----1-------------------------5-----5-------6-----6-------|
   1 + 2 + 3 + 4 + 1 + 2 + 3 + 4 + 1 + 2 + 3 + 4 + 1 + 2 + 3 + 4 +

G|-----------------------------------------------------------------|
D|-----------------------------------------------------------------|
A|---------------------1-----1-------------------------------------|
D|-----1-----1-------------------------5-----5-5-5-5-5-5-5-5-5-5-5-|
   1 + 2 + 3 + 4 + 1 + 2 + 3 + 4 + 1 + 2 + 3 + 4 + 1 + 2 + 3 + 4 +

  Chorus 1:42
G|-------------------------------------------------------------------|
D|o-----------------------------------------------------------------o|
A|o-----------------1-1-1-1-1-1-1-1-3-3-3-3-3-3-3-3-----------------o|
D|--1-1-1-1-1-1-1-1---------------------------------6-6-6-6-6-6-6-6--|
    1 + 2 + 3 + 4 + 1 + 2 + 3 + 4 + 1 + 2 + 3 + 4 + 1 + 2 + 3 + 4 +

G|-----------------------------------------------------------------|
D|-------------3-3-------------------------------------------------|
A|-3-3-3-6-6-6-----1-1-1-1-5-5-6-6---------------------------------|
D|---------------------------------1-1-1-1-1-1-1-1-6-6-6-6-6-6-6-6-|
   1 + 2 + 3 + 4 + 1 + 2 + 3 + 4 + 1 + 2 + 3 + 4 + 1 + 2 + 3 + 4 +

G|-----------------------------------------------------------------|
D|-----------------------------------------------------------------|
A|-1-1-3-3-5-5-6-6---------5-5-6-6---------------------------------|
D|-----------------6-6-6-6---------8-8-8-8-8-8-8-8/2020202020202020|
   1 + 2 + 3 + 4 + 1 + 2 + 3 + 4 + 1 + 2 + 3 + 4 + 1 + 2 + 3 + 4 +

  Bridge
G|-------------------------------------------------------------------|
D|o-----------------------------------------------------------------o|
A|o-3-3-3-3-3-3-3-3---------------------------------1-1-1-1-1-1-1-1-o|
D|------------------6-6-6-6-6-6-6-6-1-1-1-1-1-1-1-1------------------|x2
    1 + 2 + 3 + 4 + 1 + 2 + 3 + 4 + 1 + 2 + 3 + 4 + 1 + 2 + 3 + 4 +

G|-----------------|
D|-----------------|
A|-1313131313131313|
E|-----------------|
   1 + 2 + 3 + 4 +

  Chorus 2:23
G|-----------------------------------------------------------------|
D|-----------------------------------------------------------------|
A|-----------------1-1-1-1-1-1-1-1-3-3-3-3-3-3-3-3-----------------|
D|-1-1-1-1-1-1-1-1-------------------------------------------------|
   1 + 2 + 3 + 4 + 1 + 2 + 3 + 4 + 1 + 2 + 3 + 4 + 1 + 2 + 3 + 4 +

G|-----------------------------------------------------------------|
D|-----------------------------------------------------------------|
A|-----------------1-1-1-1-1-1-1-1-3-3-3-3-3-3-3-3-----------------|
D|-1-1-1-1-1-1-1-1---------------------------------6-6-6-6-6-6-6-6-|
   1 + 2 + 3 + 4 + 1 + 2 + 3 + 4 + 1 + 2 + 3 + 4 + 1 + 2 + 3 + 4 +

G|-----------------------------------------------------------------|
D|-------------3-3-------------------------------------------------|
A|-3-3-3-6-6-6-----1-1-1-1-5-5-6-6-6-6-6-6-6-6-6-6-----------------|(Not sure about this part)
D|-------------------------------------------------6-6-6-6-6-6-6-6-|
   1 + 2 + 3 + 4 + 1 + 2 + 3 + 4 + 1 + 2 + 3 + 4 + 1 + 2 + 3 + 4 +

G|-----------------------------------------------------------------|
D|-----------------------------------------------------------------|
A|-1-1-3-3-5-5-6-6---------5-5-6-6---------------------------------|
D|-----------------6-6-6-6---------8---8---8-8-8-8-----------------|
   1 + 2 + 3 + 4 + 1 + 2 + 3 + 4 + 1 + 2 + 3 + 4 + 1 + 2 + 3 + 4 +

  Outro
G|-----------------------------------------------------------------|
D|-----------------------------------------------------------------|
A|-----------------1-1-1-1-1-1-1-1-----------------2-2-2-2-2-1-1-1-|
D|-1-1-1-1-1-1-1-1-----------------6-6-6-6-6-6-6-6-----------------|
   1 + 2 + 3 + 4 + 1 + 2 + 3 + 4 + 1 + 2 + 3 + 4 + 1 + 2 + 3 + 4 +

G|-----------------------------------------------------------------|
D|-----------------------------------------------------------------|
A|-----------------1-1-1-1-1-1-1-1-------------------2-2-2---1-1-1-|
D|-1-1-1-1-1-1-1-1-----------------6-6-6-6-6-6-6-6-----------------|
   1 + 2 + 3 + 4 + 1 + 2 + 3 + 4 + 1 + 2 + 3 + 4 + 1 + 2 + 3 + 4 +

===========================================================================================

Long Way Home
IN STANDARD TUNING

*Coming Soon

===========================================================================================

Heartbreak Girl
IN STANDARD TUNING

 Verse x2 0:05
G|------------------------------------------------------------------|
D|o-----------------------------------------------------------------|
A|o-----------------------------------------------------------------|
E|--6-----6-6-----6---6-6---6-------5-----5-5-----5---5-5---5-------|
    1 + 2 + 3 + 4 + 1 + 2 + 3 + 4 + 1 + 2 + 3 + 4 + 1 + 2 + 3 + 4 +

G|------------------------------------------------------------------|
D|-----------------------------------------------------------------o|
A|-------------------------------/-6-----6-6-----6---6-6---6---8---o|
E|-3-----3-3-----1---1-1---1----------------------------------------|
   1 + 2 + 3 + 4 + 1 + 2 + 3 + 4 + 1 + 2 + 3 + 4 + 1 + 2 + 3 + 4 +

  Pre-Chorus 0:28
G|-----------------------------------------------------------------|
D|-5---------------------------------------------------------------|
A|---------------------------------8-------------------------------|
E|-----------------------------------------------------------------|
   1 + 2 + 3 + 4 + 1 + 2 + 3 + 4 + 1 + 2 + 3 + 4 + 1 + 2 + 3 + 4 +

G|-----------------------------------------------------------------|
D|-----------------------------------------------------------------|
A|-6---------------------------------------------------------------|
E|---------------------------------------------------------------\-|
   1 + 2 + 3 + 4 + 1 + 2 + 3 + 4 + 1 + 2 + 3 + 4 + 1 + 2 + 3 + 4 +

  Chorus x2 0:40
G|-----------------------------------------------------------------|
D|-----------------------------------------------------------------|
A|---------------------------------5-5-5-5-5-5-5-5-5-5-5-5---------|
E|-6-6-6-6-6-6-6-6-6-6-6-6-6-6-6-6-------------------------1-1-1-2-|
   1 + 2 + 3 + 4 + 1 + 2 + 3 + 4 + 1 + 2 + 3 + 4 + 1 + 2 + 3 + 4 +

G|-----------------------------------------------------------------|
D|-----------------------------------------------------------------|
A|---------------------------------6-6-6-6-6-6-6-6-6-6-6-6-6-6-6-6-|
E|-3-3-3-3-3-3-3-3-3-3-3-3-3-3-3-3---------------------------------|
   1 + 2 + 3 + 4 + 1 + 2 + 3 + 4 + 1 + 2 + 3 + 4 + 1 + 2 + 3 + 4 +

G|-----------------------------------------------------------------|
D|---------------------------------------------------------3-3-3-4-|
A|---------------------------------5-5-5-5-5-5-5-5-5-5-5-5---------|
E|-6-6-6-6-6-6-6-6-6-6-6-6-6-6-6-6---------------------------------|
   1 + 2 + 3 + 4 + 1 + 2 + 3 + 4 + 1 + 2 + 3 + 4 + 1 + 2 + 3 + 4 +

G|-----------------------------------------------------------------|
D|-5-5-5-5-5-5-5-5-5-5-5-5-5-5-5-5---------------------------------|
A|---------------------------------6-6-6-6-6-6-6-6-6-6-6-6-6-6-6-6-|
E|-----------------------------------------------------------------|
   1 + 2 + 3 + 4 + 1 + 2 + 3 + 4 + 1 + 2 + 3 + 4 + 1 + 2 + 3 + 4 +

  Verse x2 1:06
G|-----------------------------------------------------------------|
D|-----------------------------------------------------------------|
A|-------------------------8-------------------------------8-6-5---|
E|-6-----6-6-----6---6-6-----------5-----5-5-----5---5-5-----------|
   1 + 2 + 3 + 4 + 1 + 2 + 3 + 4 + 1 + 2 + 3 + 4 + 1 + 2 + 3 + 4 +

G|-----------------------------------------------------------------|
D|-----------------------------------------------------------------|
A|---------------------------------6-----6-6-----6---6-6---6---8---|
E|-3-----3-3-----1---1-1---1-/-/-/---------------------------------|
   1 + 2 + 3 + 4 + 1 + 2 + 3 + 4 + 1 + 2 + 3 + 4 + 1 + 2 + 3 + 4 +

G|-----------------------------------------------------------------|
D|-----------------------------------------------------------------|
A|-----------------------------------------------------------------|
E|-6-----6-6-----6---6-6---6-------5-----5-5-----5---5-5---5-------|
   1 + 2 + 3 + 4 + 1 + 2 + 3 + 4 + 1 + 2 + 3 + 4 + 1 + 2 + 3 + 4 +

G|-----------------------------------------------------------------|
D|-----------------------------------------------------------------|
A|-------------------------------/-6-----6-6-----6---6-6---6---8---|
E|-3-----3-3-----1---1-1---1---------------------------------------|
   1 + 2 + 3 + 4 + 1 + 2 + 3 + 4 + 1 + 2 + 3 + 4 + 1 + 2 + 3 + 4 +

  Pre-Chorus 1:29
G|-----------------------------------------------------------------|
D|-----------------------------------------------------------------|
A|-----------------------------------------------------------------|
E|-3---3---3---3---3---3---3---3---1---1---1---1---1---1---1---1---|
   1 + 2 + 3 + 4 + 1 + 2 + 3 + 4 + 1 + 2 + 3 + 4 + 1 + 2 + 3 + 4 +

G|-----------------------------------------------------------------|
D|-----------------------------------------------------------------|
A|-6---6---6---6---6---6---6---6---6---6---6---6---6---6---6-------|
E|---------------------------------------------------------------\-|
   1 + 2 + 3 + 4 + 1 + 2 + 3 + 4 + 1 + 2 + 3 + 4 + 1 + 2 + 3 + 4 +

  Chorus x2 1:40
G|-----------------------------------------------------------------|
D|-----------------------------------------------------------------|
A|---------------------------------5-5-5-5-5-5-5-5-5-5-5-5---------|
E|-6-6-6-6-6-6-6-6-6-6-6-6-6-6-6-6-------------------------1-1-1-2-|
   1 + 2 + 3 + 4 + 1 + 2 + 3 + 4 + 1 + 2 + 3 + 4 + 1 + 2 + 3 + 4 +

G|-----------------------------------------------------------------|
D|-----------------------------------------------------------------|
A|---------------------------------6-6-6-6-6-6-6-6-6-6-6-6-6-6-6-6-|
E|-3-3-3-3-3-3-3-3-3-3-3-3-3-3-3-3---------------------------------|
   1 + 2 + 3 + 4 + 1 + 2 + 3 + 4 + 1 + 2 + 3 + 4 + 1 + 2 + 3 + 4 +

G|-----------------------------------------------------------------|
D|---------------------------------------------------------3-3-3-4-|
A|---------------------------------5-5-5-5-5-5-5-5-5-5-5-5---------|
E|-6-6-6-6-6-6-6-6-6-6-6-6-6-6-6-6---------------------------------|
   1 + 2 + 3 + 4 + 1 + 2 + 3 + 4 + 1 + 2 + 3 + 4 + 1 + 2 + 3 + 4 +

G|-----------------------------------------------------------------|
D|-5-5-5-5-5-5-5-5-5-5-5-5-5-5-5-5---------------------------------|
A|---------------------------------6-6-6-6-6-6-6-6-6-6-6-6-6-6-6-6-|
E|-----------------------------------------------------------------|
   1 + 2 + 3 + 4 + 1 + 2 + 3 + 4 + 1 + 2 + 3 + 4 + 1 + 2 + 3 + 4 +

  Bridge 2:03
G|-----------------------------------------------------------------|
D|-----------------------------------------------------------------|
A|-8-----8-8-----8---8-8---8-------6-----6-6-----6---6-6---6-------|
E|-----------------------------------------------------------------|
   1 + 2 + 3 + 4 + 1 + 2 + 3 + 4 + 1 + 2 + 3 + 4 + 1 + 2 + 3 + 4 +

G|-----------------------------------------------------------------|
D|-----------------------------------------------------------------|
A|-------------------------8---------------------------------------|
E|-6-----6-6-----6---6-6-----------5-----5-5-----5---5-5---5-------|
   1 + 2 + 3 + 4 + 1 + 2 + 3 + 4 + 1 + 2 + 3 + 4 + 1 + 2 + 3 + 4 +

G|-----------------------------------------------------------------|
D|-----------------------------------------------------------------|
A|-8-----8-8-----8---8-8---8-------6-----6-6-----6---6-6---6-------|
E|-----------------------------------------------------------------|
   1 + 2 + 3 + 4 + 1 + 2 + 3 + 4 + 1 + 2 + 3 + 4 + 1 + 2 + 3 + 4 +

G|-----------------------------------------------------------------|
D|-----------------------------------------------------------------|
A|-3---3---3---3---3---3---3---3---6---6---6---6---6---6---6---6---|
E|-----------------------------------------------------------------|
   1 + 2 + 3 + 4 + 1 + 2 + 3 + 4 + 1 + 2 + 3 + 4 + 1 + 2 + 3 + 4 +

  Chorus x2 2:29
G|------------------------------------------------------------------|
D|o-----------------------------------------------------------------|
A|o---------------------------------5-5-5-5-5-5-5-5-5-5-5-5---------|
E|--6-6-6-6-6-6-6-6-6-6-6-6-6-6-6-6-------------------------1-1-1-2-|
    1 + 2 + 3 + 4 + 1 + 2 + 3 + 4 + 1 + 2 + 3 + 4 + 1 + 2 + 3 + 4 +

G|-----------------------------------------------------------------|
D|-----------------------------------------------------------------|
A|---------------------------------6-6-6-6-6-6-6-6-6-6-6-6-6-6-6-6-|
E|-3-3-3-3-3-3-3-3-3-3-3-3-3-3-3-3---------------------------------|
   1 + 2 + 3 + 4 + 1 + 2 + 3 + 4 + 1 + 2 + 3 + 4 + 1 + 2 + 3 + 4 +

G|-----------------------------------------------------------------|
D|-----------------------------------------------------------------|
A|---------------------------------5-5-5-5-5-5-5-5-5-5-5-5-8-8-8-9-|
E|-6-6-6-6-6-6-6-6-6-6-6-6-6-6-6-6---------------------------------|
   1 + 2 + 3 + 4 + 1 + 2 + 3 + 4 + 1 + 2 + 3 + 4 + 1 + 2 + 3 + 4 +

G|---------------------------------------------------------------------------------|
D|-------------12-12-12-12-10-10-10-12-10-12-10-----------------------------------o|
A|-10-10-10-10------------------------------------6-6-6-6-6-6-6-6-6-6-6-6-6-6-6-6-o|
E|---------------------------------------------------------------------------------|
   1  +  2  +  3  +  4  +  1  +  2  +  3  +  4  + 1 + 2 + 3 + 4 + 1 + 2 + 3 + 4 +

===========================================================================================

English Love Affair
IN STANDARD TUNING

Intro
G|-----5-------------8---8-8---8-10---------------------------------|
D|--------------------------------------------------------------3-1-|
A|-3---------3-5-6--------------------------------------------------|
E|----------------------------------4---4-----4-3-1---1---1-1-------|
   1 + 2 + 3 + 4 + 1 + 2 + 3 + 4 +  1 + 2 + 3 + 4 + 1 + 2 + 3 + 4 +

  Verse
G|-----5-------------8---8-8---8-10---------------------------------|
D|--------------------------------------------------------------3-1-|
A|-3---------3-5-6--------------------------------------------------|
E|----------------------------------4---4-----4-3-1---1---1-1-------|
   1 + 2 + 3 + 4 + 1 + 2 + 3 + 4 +  1 + 2 + 3 + 4 + 1 + 2 + 3 + 4 +

G|-----5-------------8---8-8---8-10---------------------------------|
D|------------------------------------------------------------------|
A|-3---------3-5-6--------------------------------------------------|
E|----------------------------------4---4-----4-3-1-----------------|
   1 + 2 + 3 + 4 + 1 + 2 + 3 + 4 +  1 + 2 + 3 + 4 + 1 + 2 + 3 + 4 +

  Pre-Chorus
G|-----------------------------------------------------------------|
D|-----------------------------------------------------------------|
A|---------------------------------------------3---3---3-3---1-1-3-|
E|-4---4-----4-4-6---6---6-6---6-\-3---3---3-3---------------------|
   1 + 2 + 3 + 4 + 1 + 2 + 3 + 4 + 1 + 2 + 3 + 4 + 1 + 2 + 3 + 4 +

G|-----------------------------------------------------------------|
D|-----------------------------------------------------------------|
A|-----------------------------------------------------------------|
E|-4---4-----4-4-6---6---6-6---6-\-3-3-3-3-3-3-3-3/1515151515151515|
   1 + 2 + 3 + 4 + 1 + 2 + 3 + 4 + 1 + 2 + 3 + 4 + 1 + 2 + 3 + 4 +

  Chorus x2
G|------------------------------------------------------------------|
D|o-----------------------------------------------------------------|
A|o-3-----3-3-----3-3-----3-3---------------------------------------|
E|------------------------------6---4-----4-4-----4-4-----4-4-----4-|
    1 + 2 + 3 + 4 + 1 + 2 + 3 + 4 + 1 + 2 + 3 + 4 + 1 + 2 + 3 + 4 +

G|------------------------------------------------------------------|
D|-------------------------------------------------5---3-----------o|
A|---------------------------------------------------------6-------o|
E|-6-----6-6-----6-6-----6-6-----6-3-----3-3-----3-----------6------|
   1 + 2 + 3 + 4 + 1 + 2 + 3 + 4 + 1 + 2 + 3 + 4 + 1 + 2 + 3 + 4 +

  Intro
G|-----5-------------8---8-8---8-10---------------------------------|
D|------------------------------------------------------------------|
A|-3---------3-5-6----------------------------------------------1---|
E|----------------------------------4---4-----4-3-1-----------------|
   1 + 2 + 3 + 4 + 1 + 2 + 3 + 4 +  1 + 2 + 3 + 4 + 1 + 2 + 3 + 4 +

  Verse
G|-----5-------------8---8-8---8-10---------------------------------|
D|--------------------------------------------------------------3-1-|
A|-3---------3-5-6--------------------------------------------------|
E|----------------------------------4---4-----4-3-1---1---1-1-------|
   1 + 2 + 3 + 4 + 1 + 2 + 3 + 4 +  1 + 2 + 3 + 4 + 1 + 2 + 3 + 4 +

G|-----5-------------8---8-8---8-10---------------------------------|
D|------------------------------------------------------------------|
A|-3---------3-5-6--------------------------------------------------|
E|----------------------------------4---4-----4-3-1-----------------|
   1 + 2 + 3 + 4 + 1 + 2 + 3 + 4 +  1 + 2 + 3 + 4 + 1 + 2 + 3 + 4 +

  Pre-Chorus
G|-----------------------------------------------------------------|
D|-----------------------------------------------------------------|
A|---------------------------------------------3---3---3-3---1-1-3-|
E|-4---4-----4-4-6---6---6-6---6-\-3---3---3-3---------------------|
   1 + 2 + 3 + 4 + 1 + 2 + 3 + 4 + 1 + 2 + 3 + 4 + 1 + 2 + 3 + 4 +

G|-----------------------------------------------------------------|
D|-----------------------------------------------------------------|
A|-----------------------------------------------------------------|
E|-4---4-----4-4-6---6---6-6---6-\-3-3-3-3-3-3-3-3/1515151515151515|
   1 + 2 + 3 + 4 + 1 + 2 + 3 + 4 + 1 + 2 + 3 + 4 + 1 + 2 + 3 + 4 +

  Chorus x2
G|------------------------------------------------------------------|
D|o-----------------------------------------------------------------|
A|o-3-----3-3-----3-3-----3-3---------------------------------------|
E|------------------------------6---4-----4-4-----4-4-----4-4-----4-|
    1 + 2 + 3 + 4 + 1 + 2 + 3 + 4 + 1 + 2 + 3 + 4 + 1 + 2 + 3 + 4 +

G|------------------------------------------------------------------|
D|-------------------------------------------------5---3-----------o|
A|---------------------------------------------------------6-------o|
E|-6-----6-6-----6-6-----6-6-----6-3-----3-3-----3-----------6------|
   1 + 2 + 3 + 4 + 1 + 2 + 3 + 4 + 1 + 2 + 3 + 4 + 1 + 2 + 3 + 4 +

G|-----5-------------8---8-8---8-10---------------------------------|
D|------------------------------------------------------------------|
A|-3---------3-5-6--------------------------------------------------|
E|----------------------------------4---4-----4-3-1-1-1-1-1-1-1-1-1-|
   1 + 2 + 3 + 4 + 1 + 2 + 3 + 4 +  1 + 2 + 3 + 4 + 1 + 2 + 3 + 4 +

  Bridge
G|-----------------------------------------------------------------|
D|-----------------------------------------------------------------|
A|---------------------------------3-3---3-3-------1-1---1-1-------|
E|-4-4---4-4---------------------3---------------------------------|
   1 + 2 + 3 + 4 + 1 + 2 + 3 + 4 + 1 + 2 + 3 + 4 + 1 + 2 + 3 + 4 +

G|-----------------------------------------------------------------|
D|-----------------------------------------------------------------|
A|-----------------------------------------------------------------|
E|-4-4---4-4-----------------------1-1---1-1-------3-3---3-3-------|
   1 + 2 + 3 + 4 + 1 + 2 + 3 + 4 + 1 + 2 + 3 + 4 + 1 + 2 + 3 + 4 +

  Chorus
G|-----------------------------------------------------------------|
D|-----------------------------------------------------------------|
A|-----------------------------------------------------------------|
E|-----------------------------------------------------------------|
   1 + 2 + 3 + 4 + 1 + 2 + 3 + 4 + 1 + 2 + 3 + 4 + 1 + 2 + 3 + 4 +

G|-----------------------------------------------------------------|
D|-------------------------------------------------5---3-----------|
A|---------------------------------------------------------6-------|
E|-4-----4-4-----4-4-----4-4-----4-3-----3-3-----3-----------6-----|
   1 + 2 + 3 + 4 + 1 + 2 + 3 + 4 + 1 + 2 + 3 + 4 + 1 + 2 + 3 + 4 +

G|------------------------------------------------------------------|
D|o-----------------------------------------------------------------|
A|o-3-----3-3-----3-3-----3-3---------------------------------------|
E|------------------------------6---4-----4-4-----4-4-----4-4-----4-|
    1 + 2 + 3 + 4 + 1 + 2 + 3 + 4 + 1 + 2 + 3 + 4 + 1 + 2 + 3 + 4 +

G|------------------------------------------------------------------|
D|-------------------------------------------------5---3-----------o|
A|---------------------------------------------------------6-------o|
E|-6-----6-6-----6-6-----6-6-----6-3-----3-3-----3-----------6------|
   1 + 2 + 3 + 4 + 1 + 2 + 3 + 4 + 1 + 2 + 3 + 4 + 1 + 2 + 3 + 4 +

  Outro
G|-----5-------------8---8-8---8-10---------------------------------|
D|------------------------------------------------------------------|
A|-3---------3-5-6----------------------------------------1-----3---|
E|----------------------------------4---4-----4-3-1---3-----3-------|
   1 + 2 + 3 + 4 + 1 + 2 + 3 + 4 +  1 + 2 + 3 + 4 + 1 + 2 + 3 + 4 +

G|-----5-------------8---8-8---8-10-------------------|
D|----------------------------------6---6-----6-5-----|
A|-3---------3-5-6--------------------------------8-6-|
E|----------------------------------------------------|
   1 + 2 + 3 + 4 + 1 + 2 + 3 + 4 +  1 + 2 + 3 + 4 +

G|---------------------------------|
D|-5---3---------------------------|
A|---------6-----------------------|
E|-----------6-----8-\-------------|
   1 + 2 + 3 + 4 + 1 + 2 + 3 + 4 +

===========================================================================================

Amnesia
IN STANDARD TUNING

  Chorus 0:45
G|-------------------------------------------------------------------|
D|o-----------------------------------------------------------------o|
A|o-5---------------4---------------2-------------------------------o|
E|--------------------------------------------------3----------------|x4
    1 + 2 + 3 + 4 + 1 + 2 + 3 + 4 + 1 + 2 + 3 + 4 + 1 + 2 + 3 + 4 +

Rest

  Chorus 2:02
G|-------------------------------------------------------------------|
D|o-----------------------------------------------------------------o|
A|o-5---------------4---------------2-------------------------------o|
E|--------------------------------------------------3----------------|x4
    1 + 2 + 3 + 4 + 1 + 2 + 3 + 4 + 1 + 2 + 3 + 4 + 1 + 2 + 3 + 4 +

Rest

  Chorus 2:59
G|-------------------------------------------------------------------|
D|o-----------------------------------------------------------------o|
A|o-5---------------4---------------2-------------------------------o|
E|--------------------------------------------------3----------------|x4
    1 + 2 + 3 + 4 + 1 + 2 + 3 + 4 + 1 + 2 + 3 + 4 + 1 + 2 + 3 + 4 +

  End of Outro 3:51 (Cause I'm Really Not Fine At All...)
G|------------------------------------------------------------------|
D|------------------------------------------------------------------|
A|-10---------------------------------------------------------------|
E|------------------------------------------------------------------|
   1  + 2 + 3 + 4 + 1 + 2 + 3 + 4 + 1 + 2 + 3 + 4 + 1 + 2 + 3 + 4 +

===========================================================================================

Tabbed By Jack Mills
comments
print report bad tab
I want to post or [tab]
guest
You may want to rate the tab now too:
select rating
Please do not post tabs as comments. Select "correction" instead!