Oops, an error
Loading. Please wait.

American Idiot Bass Tab

7,291 views 51 this week
no commentswrite comment
1 2 3 4 5
accurate
x 2
Autoscroll
+/-
esc
set tempo
stop
Contributor
Difficulty
Tuning
intermediate
D A D G B E
WARNING: You are trying to view
                                    content from Ultimate-Guitar.com
                                    in an unauthorized application,
                                    which is prohibited.

                                    Please use an official Ultimate
                                    Guitar Tabs application for iPhone,
                                    iPad or Android to access legitimate
                                    chords, guitar, bass, and drum tabs
                                    from Ultimate-Guitar.com database.

                                    Type "ultimate guitar tabs" in Apple
                                    App Store's or Android Market's
                                    search to find the application.
  Intro 0:13
G|-------------------------------------------------------------------|
D|-------------------------------------------------------------------|
A|---------5---5---------5-----------------5---5---------5-----------|
D|-\-7-7-----------5---5-----7-7-5---7-7-----------5---5-----7-7-5---|
   + 1 + 2 + 3 + 4 + 1 + 2 + 3 + 4 + 1 + 2 + 3 + 4 + 1 + 2 + 3 + 4 +

G|-----------------------------------------------------------------|
D|-----------------------------------------------------------------|
A|-------5---5---------5-----------------5---5---------5-----------|
D|-7-7-----------5---5-----7-7-5---7-7-----------5---5-----7-7-5---|
   1 + 2 + 3 + 4 + 1 + 2 + 3 + 4 + 1 + 2 + 3 + 4 + 1 + 2 + 3 + 4 +

  Verse 0:24
G|-------------------------------------------------------------------|
D|o-----------------------------------------------------------------o|
A|o---------------------------------------5---5---------5-----------o|
D|--------------------------------\-7-7-----------5---5-----7-7-5----|x4
    1 + 2 + 3 + 4 + 1 + 2 + 3 + 4 + 1 + 2 + 3 + 4 + 1 + 2 + 3 + 4 +

  Chorus 0:44
G|-----------------------------------------------------------------|
D|-----------------------------------------------------------------|
A|-5-5-5-5-5-5-5-5---5-5---5-5-5---0-0-0---0-0-0-0---0-0---0-0-0-0-|
D|-----------------------------------------------------------------|
   1 + 2 + 3 + 4 + 1 + 2 + 3 + 4 + 1 + 2 + 3 + 4 + 1 + 2 + 3 + 4 +

G|-----------------------------------------------------------------|
D|-----------------------------------------------------------------|
A|---------------------------------0-0-0---0-0-0-0---0-0---0-0-0-0-|
D|-2-2-2-2-2-2-2-2---2-2---2-2-2-----------------------------------|
   1 + 2 + 3 + 4 + 1 + 2 + 3 + 4 + 1 + 2 + 3 + 4 + 1 + 2 + 3 + 4 +

G|-----------------------------------------------------------------|
D|-----------------------------------------------------------------|
A|-5-5-5-5-5-5-5-5---5-5---5-5-5---0-0-0---0-0-0-0---0-0---0-0-0-0-|
D|-----------------------------------------------------------------|
   1 + 2 + 3 + 4 + 1 + 2 + 3 + 4 + 1 + 2 + 3 + 4 + 1 + 2 + 3 + 4 +

G|-----------------------------------------------------------------|
D|-----------------------------------------------------------------|
A|-----------------------------------------------------------------|
D|-2-2-2-2-2-2-2-2---2-2---2-2-2---------------------------------\-|
   1 + 2 + 3 + 4 + 1 + 2 + 3 + 4 + 1 + 2 + 3 + 4 + 1 + 2 + 3 + 4 +

  Intro 1:04
G|-----------------------------------------------------------------|
D|-----------------------------------------------------------------|
A|-------5---5---------5-----------------5---5---------5-----------|
D|-7-7-----------5---5-----7-7-5---7-7-----------5---5-----7-7-5---|
   1 + 2 + 3 + 4 + 1 + 2 + 3 + 4 + 1 + 2 + 3 + 4 + 1 + 2 + 3 + 4 +

  Verse 1:09
G|-------------------------------------------------------------------|
D|o-----------------------------------------------------------------o|
A|o---------------------------------------5---5---------5-----------o|
D|--------------------------------\-7-7-----------5---5-----7-7-5----|x3
    1 + 2 + 3 + 4 + 1 + 2 + 3 + 4 + 1 + 2 + 3 + 4 + 1 + 2 + 3 + 4 +

G|-----------------------------------------------------------------|
D|-----------------------------------------------------------------|
A|---------------------------------------5---5---0-0-0-0-0-0-0-0-0-|
D|-------------------------------\-7-7-----------------------------|x1
   1 + 2 + 3 + 4 + 1 + 2 + 3 + 4 + 1 + 2 + 3 + 4 + 1 + 2 + 3 + 4 +

  Chorus 1:29
G|-----------------------------------------------------------------|
D|-----------------4---------------------------------------2-------|
A|-5-5-5-5-5-5-5-5-----7---5---7---0-0-0---0-0-0-5---0-4-------4---|
D|-----------------------------------------------------------------|
   1 + 2 + 3 + 4 + 1 + 2 + 3 + 4 + 1 + 2 + 3 + 4 + 1 + 2 + 3 + 4 +

G|-----------------------------------------------------------------|
D|-----------------------------------------------------------------|
A|---------------------------------0-0-0---0-0-0-0---0-0---0-0-0-0-|
D|-2-2-2-2-2-2-2-2---2-2---2-2-2-----------------------------------|
   1 + 2 + 3 + 4 + 1 + 2 + 3 + 4 + 1 + 2 + 3 + 4 + 1 + 2 + 3 + 4 +

G|-----------------------------------------------------------------|
D|-----------------4-----------------------------------------------|
A|-5-5-5-5-5-5-5-5-----7---5-5-7---0-0-0---0-0-0-4---5---7---5---4-|
D|-----------------------------------------------------------------|
   1 + 2 + 3 + 4 + 1 + 2 + 3 + 4 + 1 + 2 + 3 + 4 + 1 + 2 + 3 + 4 +

G|-----------------------------------------------------------------|
D|-----------------------------------------------------------------|
A|-----------------------------------------------------------------|
D|-2-2-2-2-2-2-2-2---2-2---2-2-2---------------------------------\-|
   1 + 2 + 3 + 4 + 1 + 2 + 3 + 4 + 1 + 2 + 3 + 4 + 1 + 2 + 3 + 4 +

  Bridge 1:49                        Interlude (Micro Bass Solo!)
G|---------------------------------|--------------------------------|
D|---------------------------------|-----5/7-------5----------------|
A|-------5---5---------5-----------|-----------5-7-----7---5-4------|
D|-7-7-----------5---5-----7-7-5---|-7------------------------------|
   1 + 2 + 3 + 4 + 1 + 2 + 3 + 4 +

                                    Drum Solo
G|---------------------------------|---------------------------------|
D|---------------------------------|---------------------------------|
A|-------5---5---------5-----------|---------------------------------|
D|-7-7-----------5---5-----7-7-5---|---------------------------------|
   1 + 2 + 3 + 4 + 1 + 2 + 3 + 4 +   1 + 2 + 3 + 4 + 1 + 2 + 3 + 4 +

  1:59
G|-----------------------------|
D|-----------------------------|
A|-------5---5---------5-------|
D|-7-7-----------5---5-----7-5-|

  Guitar Solo 2:02
G|-----------------------------------------------------------------|
D|-----------------------------------------------------------------|
A|-5-5-5-5-5-5-5-5---5-5---5-5-5---0-0-0---0-0-0-0---0-0---0-0-0-0-|
D|-----------------------------------------------------------------|
   1 + 2 + 3 + 4 + 1 + 2 + 3 + 4 + 1 + 2 + 3 + 4 + 1 + 2 + 3 + 4 +

G|-----------------------------------------------------------------|
D|-----------------------------------------------------------------|
A|---------------------------------0-0-0---0-0-0-0---0-0---0-0-0-0-|
D|-2-2-2-2-2-2-2-2---2-2---2-2-2-----------------------------------|
   1 + 2 + 3 + 4 + 1 + 2 + 3 + 4 + 1 + 2 + 3 + 4 + 1 + 2 + 3 + 4 +

G|-----------------------------------------------------------------|
D|-----------------------------------------------------------------|
A|-5-5-5-5-5-5-5-5---5-5---5-5-5---0-0-0---0-0-0-0---0-0--(0)(0)(0)|
D|-----------------------------------------------------------------|
   1 + 2 + 3 + 4 + 1 + 2 + 3 + 4 + 1 + 2 + 3 + 4 + 1 + 2 + Triplet

G|---------------------------------|
D|---------------------------------|
A|---------------------------------|
D|-2-2-2-2-2-2-2-2---2-2---2-2-2---|
   1 + 2 + 3 + 4 + 1 + 2 + 3 + 4 +

Rest

  Chorus 2:34
G|-----------------------------------------------------------------|
D|-----------------------4-----------------------------------------|
A|-5-5-5-5-5-5-5-5---7-------7--5--0-0-0---0-0-0-0---0-0---0-0-0-0-|
D|-----------------------------------------------------------------|
   1 + 2 + 3 + 4 + 1 + 2 + 3 + 4 + 1 + 2 + 3 + 4 + 1 + 2 + 3 + 4 +

G|-----------------------------------------------------------------|
D|-----------------------------------------------------------------|
A|---------------------------------0-0-0---0-0-0-0---0-0---0-0-0-0-|
D|-2-2-2-2-2-2-2-2---2-2---2-2-2-----------------------------------|
   1 + 2 + 3 + 4 + 1 + 2 + 3 + 4 + 1 + 2 + 3 + 4 + 1 + 2 + 3 + 4 +

G|-----------------------------------------------------------------|
D|-----------------------4-----------------------------------------|
A|-5-5-5-5-5-5-5-5---7-------7--5--0-0-0---0-0-0-0---0-0---0-0-0-0-|
D|-----------------------------------------------------------------|
   1 + 2 + 3 + 4 + 1 + 2 + 3 + 4 + 1 + 2 + 3 + 4 + 1 + 2 + 3 + 4 +

G|---------------------------------|
D|---------------------------------|
A|---------------------------------|
D|-2-2-2-2-2-2-2-2---2-2---2-2-2---|
   1 + 2 + 3 + 4 + 1 + 2 + 3 + 4 +

  Outro
G|-----------------------------------------------------------------|
D|-----------------------------------------------------------------|
A|---------------------------------------------------5---5---------|
D|---------------------------------------------------------5-------|
   1 + 2 + 3 + 4 + 1 + 2 + 3 + 4 + 1 + 2 + 3 + 4 + 1 + 2 + 3 + 4 +

G|-----------------------------------------------------------------|
D|-----------------------------------------------------------------|
A|-------------------5---5---------------------------5-5-5---------|
D|-7-----6-----5-----------7-------7-----6-----5-----------7-------|
   1 + 2 + 3 + 4 + 1 + 2 + 3 + 4 + 1 + 2 + 3 + 4 + 1 + 2 + 3 + 4 +

Tabbed By Jack Mills
comments
We did not receive enough feedback on this tab! Please rate:
print report bad tab
1 2 3 4 5
I want to post or [tab]
guest
You may want to rate the tab now too:
select rating
Please do not post tabs as comments. Select "correction" instead!