Oops, an error
Loading. Please wait.

Dont Stop Bass Tab

ver1
ver1

Whole song

Interactive

More versions @911Tabs.com
8,912 views 109 this week
no commentswrite comment
1 2 3 4 5
excellent!
x 4
Autoscroll
+/-
esc
set tempo
stop
Contributor
Difficulty
Tuning
intermediate
D A D G B E
WARNING: You are trying to view
                                    content from Ultimate-Guitar.com
                                    in an unauthorized application,
                                    which is prohibited.

                                    Please use an official Ultimate
                                    Guitar Tabs application for iPhone,
                                    iPad or Android to access legitimate
                                    chords, guitar, bass, and drum tabs
                                    from Ultimate-Guitar.com database.

                                    Type "ultimate guitar tabs" in Apple
                                    App Store's or Android Market's
                                    search to find the application.
  Intro 0:01
G|-----------------------------------------------------------------|
D|-----------------------------------------------------------------|
A|-----------------------------------------------------------------|
D|-1-1-1-1-1-5-5-6-6-6-6-6---------1-1-1-1-1-5-5-6-6-6-6-6---------|
   1 + 2 + 3 + 4 + 1 + 2 + 3 + 4 + 1 + 2 + 3 + 4 + 1 + 2 + 3 + 4 +

  Verse 0:07
G|-----------------------------------------------------------------|
D|-----------------------------------------------------------------|
A|-----------------------------------------------------------------|
D|-1-1-1-1-1-5-5-6-6-6-6-6---------1-1-1-1-1-5-5-6-6-6-6-6---------|
   1 + 2 + 3 + 4 + 1 + 2 + 3 + 4 + 1 + 2 + 3 + 4 + 1 + 2 + 3 + 4 +

G|-----------------------------------------------------------------|
D|-----------------------------------------------------------------|
A|-----------------------------------------------------------------|
D|-1-1-1-1-1-5-5-6-6-6-6-6---------1-1-1-1-1-5-5-6-6-6-6-6-----10\-|
   1 + 2 + 3 + 4 + 1 + 2 + 3 + 4 + 1 + 2 + 3 + 4 + 1 + 2 + 3 + 4 +

G|-----------------------------------------------------------------|
D|-----------------------------------------------------------------|
A|-------------------------5-5-5-6-------------------------5-5-5-6-|
D|-1-1-1-1-1-5-5-6-6-6-6-6---------1-1-1-1-1-5-5-6-6-6-6-6---------|
   1 + 2 + 3 + 4 + 1 + 2 + 3 + 4 + 1 + 2 + 3 + 4 + 1 + 2 + 3 + 4 +

  Pre-Chorus 0:26
G|-----------------------------------------------------------------|
D|-----------------------------------------------------------------|
A|-----------------------------------------------------------------|
D|-8-8-8-8-8-8-8-8-8-8-8-8-8-8-8-8-8-8-8-8-8-8-8-8-8-8-8-8-8-8-8-\-|
   1 + 2 + 3 + 4 + 1 + 2 + 3 + 4 + 1 + 2 + 3 + 4 + 1 + 2 + 3 + 4 +

  Chorus 0:33 x2
G|-------------------------------------------------------------------|
D|o------------------------------------------------------------------|
A|o-6-6-6-6-6-6-6-6-6-6-6-8-8-8-8-10---------------------------------|
D|-----------------------------------6-6-6-6-6-6-6-6-6-6-6-6-6-6-5-6-|
    1 + 2 + 3 + 4 + 1 + 2 + 3 + 4 +  1 + 2 + 3 + 4 + 1 + 2 + 3 + 4 +

G|------------------------------------------------------------------|
D|-----------------------------------------------------------------o|
A|---------------------------------6-6-6-6-6-6-6-6-----------------o|
D|-8-8-8-8-8-8-8-8-6-6-6-6-6-6-6-5-----------------6-6-7-7-8-8-8-8--|
   1 + 2 + 3 + 4 + 1 + 2 + 3 + 4 + 1 + 2 + 3 + 4 + 1 + 2 + 3 + 4 +

  Verse 0:58
G|-----------------------------------------------------------------|
D|-----------------------------------------------------------------|
A|-----------------------------------------------------------------|
D|-1-1-1-1-1-5-5-6-6-6-6-6---------1-1-1-1-1-5-5-6-6-6-6-6---------|
   1 + 2 + 3 + 4 + 1 + 2 + 3 + 4 + 1 + 2 + 3 + 4 + 1 + 2 + 3 + 4 +

G|-----------------------------------------------------------------|
D|-----------------------------------------------------------------|
A|-------------------------5-5-5-6-------------------------5-5-5-6-|
D|-1-1-1-1-1-5-5-6-6-6-6-6---------1-1-1-1-1-5-5-6-6-6-6-6---------|
   1 + 2 + 3 + 4 + 1 + 2 + 3 + 4 + 1 + 2 + 3 + 4 + 1 + 2 + 3 + 4 +

  Pre-Chorus 1:11
F|-----------------------------------------------------------------|
C|-----------------------------------------------------------------|
G|-----------------------------------------------------------------|
D|-8-8-8-8-8-8-8-8-8-8-8-8-8-8-8-8-8-8-8-8-8-8-8-8-8-8-8-8-8-8-8-\-|
   1 + 2 + 3 + 4 + 1 + 2 + 3 + 4 + 1 + 2 + 3 + 4 + 1 + 2 + 3 + 4 +

  Chorus 1:17
G|-------------------------------------------------------------------|
D|o------------------------------------------------------------------|
A|o-6-6-6-6-6-6-6-6-6-6-6-8-8-8-8-10---------------------------------|
D|-----------------------------------6-6-6-6-6-6-6-6-6-6-6-6-6-6-5-6-|
    1 + 2 + 3 + 4 + 1 + 2 + 3 + 4 +  1 + 2 + 3 + 4 + 1 + 2 + 3 + 4 +

G|------------------------------------------------------------------|
D|-----------------------------------------------------------------o|
A|---------------------------------6-6-6-6-6-6-6-6-----------------o|
D|-8-8-8-8-8-8-8-8-6-6-6-6-6-6-6-5-----------------6-6-7-7-8-8-8-8--|
   1 + 2 + 3 + 4 + 1 + 2 + 3 + 4 + 1 + 2 + 3 + 4 + 1 + 2 + 3 + 4 +

  1:43 Bridge
G|--------------------------------------------------------------------|
D|--------------------------------------------------------------------|
A|--------------------------------------------------------------------|
D|-5-5-5-5-5-5-5-5-5-5-5-5-5-5-5-5-6-6-6-6-6-6-6-6-10-10-10-8-8-8-8-6-|
   1 + 2 + 3 + 4 + 1 + 2 + 3 + 4 + 1 + 2 + 3 + 4 + 1  +  2  + 3 + 4 +

F|-----------------------------------------------------------------|
C|-----------------------------------------------------------------|
G|-----------------------------------------------------------------|
D|-5-5-5-5-5-5-5-5-5-5-5-5-5-5-5-5-8-8-8-8-8-8-8-8-8-8-8-8-8-8-8-8-|
   1 + 2 + 3 + 4 + 1 + 2 + 3 + 4 + 1 + 2 + 3 + 4 + 1 + 2 + 3 + 4 +

  Chorus (Quiet) 1:56
G|------------------------------------------------------------------|
D|------------------------------------------------------------------|
A|------------------------------------------------------------------|
D|------------------------------------------------------------------|
   1 + 2 + 3 + 4 + 1 + 2 + 3 + 4 +  1 + 2 + 3 + 4 + 1 + 2 + 3 + 4 +

G|-----------------------------------------------------------------|
D|-----------------------------------------------------------------|
A|---------------------------------6-6-6-6-6-6-6-6-----------------|
D|-------------------------------------------------6-6-7-7-8-8-8-8-|
   1 + 2 + 3 + 4 + 1 + 2 + 3 + 4 + 1 + 2 + 3 + 4 + 1 + 2 + 3 + 4 +
 
  Chorus 2:09
G|------------------------------------------------------------------|
D|------------------------------------------------------------------|
A|-6-6-6-6-6-6-6-6-6-6-6-8-8-8-8-10---------------------------------|
D|----------------------------------6-6-6-6-6-6-6-6-6-6-6-6-6-6-5-6-|
   1 + 2 + 3 + 4 + 1 + 2 + 3 + 4 +  1 + 2 + 3 + 4 + 1 + 2 + 3 + 4 +

G|-----------------------------------------------------------------|
D|-----------------------------------------------------------------|
A|---------------------------------6-6-6-6-6-6-6-6-----------------|
D|-8-8-8-8-8-8-8-8-6-6-6-6-6-6-6-5-----------------6-6-7-7-8-8-8-8-|
   1 + 2 + 3 + 4 + 1 + 2 + 3 + 4 + 1 + 2 + 3 + 4 + 1 + 2 + 3 + 4 +

G|------------------------------------------------------------------|
D|------------------------------------------------------------------|
A|-6-6-6-6-6-6-6-6-6-6-6-8-8-10-8-----------------------------------|
D|--------------------------------5-6-6-6-6-6-6-6-6-6-6-6-6-6-6-5-6-|
   1 + 2 + 3 + 4 + 1 + 2 + 3 +  4 + 1 + 2 + 3 + 4 + 1 + 2 + 3 + 4 +

G|-----------------------------------------------------------------|
D|-----------------------------------------------------------------|
A|---------------------------------6-6-6-6-6-6-6-6-----------------|
D|-8-8-8-8-8-8-8-8-6-6-6-6-6-6-6-5-----------------6-6-7-7-8-8-8-8-|
   1 + 2 + 3 + 4 + 1 + 2 + 3 + 4 + 1 + 2 + 3 + 4 + 1 + 2 + 3 + 4 +

G|--------------------------------------------------------------------|
D|--------------------------------------------------------------------|
A|-6-6-6-6-8-8-10-10-10-6-6-6-----------------------------------------|
D|----------------------------5-5-5-5-6-6-6-6-6-6-6-6-6-6-6-6-6-6-5-6-|
   1 + 2 + 3 + 4  +  1  + 2 + 3 + 4 + 1 + 2 + 3 + 4 + 1 + 2 + 3 + 4 +

G|-----------------------------------------------------------------|
D|-----------------------------------------------------------------|
A|---------------------------------6-6-6-6-6-6-6-6-----------------|
D|-8-8-8-8-8-8-8-8-6-6-6-6-6-6-6-5-----------------6-6-7-7-8-8-8-8-|
   1 + 2 + 3 + 4 + 1 + 2 + 3 + 4 + 1 + 2 + 3 + 4 + 1 + 2 + 3 + 4 +

G|-----------------|
D|-----------------|
A|-6-\-\-\---------|
D|-----------------|
   1 + 2 + 3 + 4 +

Tabbed By Jack Mills
comments
print report bad tab
I want to post or [tab]
guest
You may want to rate the tab now too:
select rating
Please do not post tabs as comments. Select "correction" instead!