Oops, an error
Loading. Please wait.

She Looks So Perfect Tab

ver1
ver1

Whole song

Interactive

Video

More versions @911Tabs.com
45,977 views 875 this week
5 commentsread comments
1 2 3 4 5
excellent!
x 14
Autoscroll
+/-
esc
set tempo
stop
Contributor
Hey! There's an official Ultimate Guitar app which is ideal
for learning songs when you're away from computer. Get the app
WARNING: You are trying to view
                                    content from Ultimate-Guitar.com
                                    in an unauthorized application,
                                    which is prohibited.

                                    Please use an official Ultimate
                                    Guitar Tabs application for iPhone,
                                    iPad or Android to access legitimate
                                    chords, guitar, bass, and drum tabs
                                    from Ultimate-Guitar.com database.

                                    Type "ultimate guitar tabs" in Apple
                                    App Store's or Android Market's
                                    search to find the application.
Hey! I love this song, I hope this tab/chords work for you! They sound pretty accurate 
to me, but if you have any problems comment or tweet me; stephieeej x

Standard Tuning

INTRO -

The first note the the long one at the beginning and then the rest that repetitive part 
after the Michael plays, just play the notes one after the other as fast as he does!

e|--12-------------12----12----12--------|
B|--12-----------12----12----12----12----|
G|---------------------------------------|
D|---------------------------------------|
A|---------------------------------------|
E|---------------------------------------|

The rest is Luke's guitar.

CHORD CHART

E   |022300|
B   |x24400|
C#  |x46600|
A   |x02200|

E B C# A (Palm muted during hey's)

Hey hey
Hey hey
Hey hey
Hey hey
Hey hey
Hey hey
Hey hey
Hey hey

--------------------------------------------------------------------------------------

Verse
E B C# A - Palm muted

Simmer down, simmer down
They say were too young now to amount to anything else
But look around we work too damn hard for this
Just to give it up now

--------------------------------------------------------------------------------------

Pre-chorus
E B C# A - Palm Muted

If you dont swim you'll drown
But dont move honey

--------------------------------------------------------------------------------------

Chorus

Michael:

e|---12(x4)-----|   x12 (to the strumming he plays)                    e|---14---|
B|---12(x4)-----|   it changes when to this when Luke says "down" -    B|---12---|

Luke: E B C# A (as list at the top)

She looks so perfect just standing there
In my american apparel underwear
And I know now that I'm so down

Your lipstick stain is a work of art
I got your name tattooed in an arrow heart
And I know now that I'm so down

Michael Solo 1:

e|------------------------------------------------------------------|
B|-12(x9)---14(x9)---17(x8)-16---19-17--16-17--14-16--12-14--10-12-9|
G|------------------------------------------------------------------|
D|------------------------------------------------------------------|
A|------------------------------------------------------------------|
E|------------------------------------------------------------------|

Hey hey
Hey hey
Hey hey
Hey hey
Hey hey

--------------------------------------------------------------------------------------

Verse
E B C# A - Palm Mute

Lets get out lets get out cause this deadbeats town's
Only here just to keep us down
While I was out I've found myself alone
Just thinking if I showed up with a plane ticket
And a shiny diamond ring with your name on it
Would you wanna run away too?
'Cause all I really want is you

--------------------------------------------------------------------------------------

Chorus

Michael:

e|---12(x4)-----|   x12 (to the strumming he plays)                    e|---14---|
B|---12(x4)-----|   it changes when to this when Luke says "down" -    B|---12---|

Luke: E B C# A

She looks so perfect standing there
In my american apparel underwear
And I know now that I'm so down

I made a mixtape straight out of 94
I've got your ripped skinny jeans lying on the floor
And I know now that I'm so down

Michael's Solo 2: 

e|-----------------------------------------------------------------|
B|-12(x9)---14(x9)---17(x8)-16---19-17--16-14----------------------|
G|-----------------------------------------------------------------|
D|-----------------------------------------------------------------|
A|-----------------------------------------------------------------|
E|-----------------------------------------------------------------|

Hey hey
Hey hey
Hey hey
Hey hey
Hey hey

--------------------------------------------------------------------------------------

Chorus

Luke: E B C# A - Palm Muted

Looks so perfect standing there
In my american apparel underwear
And I know now that I'm so down
Your lipstick stain is a work of art
I've got your name tattooed in an arrow heart
And I know now that I'm so down

Michael Solo 1:

e|-----------------------------------------------------------------|
B|-12(x9)---14(x9)---17(x8)-16---19-17--16-17--14-16--12-14--10-12-9|
G|-----------------------------------------------------------------|
D|-----------------------------------------------------------------|
A|-----------------------------------------------------------------|
E|-----------------------------------------------------------------|

Hey hey
Hey hey
Hey hey
Hey hey
Hey hey

--------------------------------------------------------------------------------------

Chorus

Michael:

e|---12(x4)-----|   x12 (to the strumming he plays)                    e|---14---|
B|---12(x4)-----|   it changes when to this when Luke says "down" -    B|---12---|

Luke: E B C# A

She looks so perfect standing there
In my american apparel underwear
And I know now that I'm so down

Michael Solo 1:

e|------------------------------------------------------------------|
B|-12(x9)---14(x9)---17(x8)-16---19-17--16-17--14-16--12-14--10-12-9|
G|------------------------------------------------------------------|
D|------------------------------------------------------------------|
A|------------------------------------------------------------------|
E|------------------------------------------------------------------|

Your lipstick stain is a work of art
I've got your name tattoed in an arrow heart
And I know now that I'm so down
comments
print report bad tab
5 comments total. Showing first comments.
0 reply
micstel wrote on May 23 2014, 06:49 pm

i think the intro part before they start playing might be:
e|12--------12--12
B|12----------12--(etc..) amazing tab :3

0 reply
stephieej wrote on May 24 2014, 02:31 am

Yes I agree! Thank you :) x

+3 reply
paolo.spera wrote on May 29 2014, 07:50 am

I my friend!
The Chord are: E - G#m - C#m - A

Stay rock! ;)

I want to post or [tab]
guest
You may want to rate the tab now too:
select rating
Please do not post tabs as comments. Select "correction" instead!