Oops, an error
Loading. Please wait.

Crashing High Tab

ver1
ver1

Whole song

Interactive

More versions @911Tabs.com
1,172 views 1 this week
no commentswrite comment
1 2 3 4 5
accurate
x 1
Autoscroll
+/-
esc
set tempo
stop
Contributor
Hey! There's an official Ultimate Guitar app which is ideal
for learning songs when you're away from computer. Get the app
WARNING: You are trying to view
                                    content from Ultimate-Guitar.com
                                    in an unauthorized application,
                                    which is prohibited.

                                    Please use an official Ultimate
                                    Guitar Tabs application for iPhone,
                                    iPad or Android to access legitimate
                                    chords, guitar, bass, and drum tabs
                                    from Ultimate-Guitar.com database.

                                    Type "ultimate guitar tabs" in Apple
                                    App Store's or Android Market's
                                    search to find the application.
#----------------------------------PLEASE NOTE---------------------------------#
#This file is the author's own work and represents their interpretation of the #
#song. You may only use this file for private study, scholarship, or research. #
#------------------------------------------------------------------------------##

                                  CRASHING HIGH
                           As recorded by The 69 Eyes
                        (From the 2002 Album PARIS KILLS)

Words by Jyrki

Music by Bazie
Arranged by The 69 Eyes
Transcribed by vitaha_z

Gtr I (Db Ab Db Gb Bb Eb) - 'Johnny Lee Michaels'
Gtr II (Db Ab Db Gb Bb Eb) - 'Johnny Lee Michaels'
Gtr III (Db Ab Db Gb Bb Eb) - 'Bazie'
Gtr IV (Db Ab Db Gb Bb Eb) - 'Timo Timo'
Gtr V (Db Ab Db Gb Bb Eb) - 'Johnny Lee Michaels'

   Intro
    Q=136
    $                                                        To Coda
                                                             To Coda
    D5             G5                F5             C5
   4/4
    Gtrs I, III
    Q  E Q  Q  E   +E  E E Q  Q  E   Q  E Q  Q  E   +E  E E Q   Q   E
||---------------|-----------------|--------------|--------------------||
||o----8-6--5----|-------8-6--5----|----8-6--5--5-|-(5)-5-6-5---------o||
||--7----------7-|-(7)-7---------7-|-5------------|-------------7---5--||
||---------------|-----------------|--------------|--------------------||
||o--------------|-----------------|--------------|-------------------o||
||---------------|-----------------|--------------|--------------------||
|
|   Gtr IV
|   W               W                W               E  E E E E E E E
||---------------|-----------------|--------------|--------------------||
||o--------------|-----------------|--------------|-------------------o||
||--7------------|-----------------|--------------|-----5-5-5-5-5-5-5--||
||--7------------|--5--------------|-3------------|-----5-5-5-5-5-5-5--||
||o-5------------|--5--------------|-3------------|-----3-3-3-3-3-3-3-o||
||---------------|--5--------------|-3------------|--------------------||


 Verse
  D5                                           (C5)
  Gtr III
                      >
  S S E E  Q  Q.     +W           +W           W
|------------------|------------|------------|-----------|
|------------------|------------|------------|-----------|
|----------5--2----|-(2)--------|-(2)--------|-----------|
|-----3------------|------------|------------|-----------|
|-3s5---5----------|------------|------------|-----------|
|------------------|------------|------------|-----------|
|
| Gtr IV
| >
| W                  +W           +W           W
|------------------|------------|------------|-----------|
|------------------|------------|------------|-----------|
|-7----------------|-(7)--------|-(7)--------|-----------|
|-7----------------|-(7)--------|-(7)--------|-----------|
|-5----------------|-(5)--------|-(5)--------|-----------|
|------------------|------------|------------|-----------|
|
| Gtr II
| E   E H.           +W           +W           E E H.
|------------------|------------|------------|-----------|
|------------------|------------|------------|-----------|
|------------------|------------|------------|-----5-----|
|-----3------------|------------|------------|---5-------|
|-5-----5----------|-(5)--------|-(5)--------|-3---------|
|------------------|------------|------------|-----------|


  N.C.                                         (C5)
                      >
                                                          PM|
  S S E E  Q  Q.     +W           +W           H.         E E
|------------------|------------|------------|-----------------||
|------------------|------------|------------|-----------------||
|----------5--2----|-(2)--------|-(2)--------|-----------------||
|-----3------------|------------|------------|-----------------||
|-3s5---5----------|------------|------------|------------3-5--||
|------------------|------------|------------|-----------------||
|
| Gtr II
| E   E H.           +W           +W           E  E H.
|------------------|------------|------------|-----------------||
|------------------|------------|------------|-----------------||
|------------------|------------|------------|------5----------||
|-----3------------|------------|------------|----5------------||
|-5-----5----------|-(5)--------|-(5)--------|-3---------------||
|------------------|------------|------------|-----------------||


 Pre-Chorus
  $$
  F/C                C                  F/D                G/D
     PM----------|      PM----------|      PM----------|      PM----------|
   E E E E E E E E    E E E E E E E E    E E E E E E E E    E E E E E E E E
|------------------|------------------|------------------|------------------|
|------------------|------------------|------------------|------------------|
|------------------|------------------|------------------|------------------|
|----------3-5-----|----------3-5-----|----------3-5-----|----------3-5-----|
|----3-5-3-----3-5-|----3-5-3-----3-5-|----3-5-3-----3-5-|----3-5-3-----3-5-|
|------------------|------------------|------------------|------------------|
|
| Gtr II
|  W                  W                  W                  W
|------------------|------------------|------------------|------------------|
|------------------|------------------|------------------|------------------|
|-^2---------------|-^0---------------|-^2---------------|-^4---------------|
|-^3---------------|-^2---------------|-^3---------------|-^5---------------|
|-^3---------------|-^3---------------|-^5---------------|-^5---------------|
|------------------|------------------|------------------|------------------|


  F/C                C                  G
                              Gtrs III, IV
     PM----------|      PM--|
   E E E E E E E E    E E E E E E E E   +E  E E E E E E E   +E  E E E E E Q
|------------------|------------------|-------------------|------------------||
|------------------|------------------|-------------------|------------------||
|------------------|------------------|-------------------|------------------||
|----------3-5-----|----------3h5-----|-----------3h5-----|-----------3h5----||
|----3-5-3-----3-5-|----3-5-3-----3-5-|-(5)-3h5p3-----3-5-|-(5)-3h5p3-----3--||
|------------------|------------------|-------------------|------------------||
|
|  W                  W                  W                  +W
|------------------|------------------|-------------------|------------------||
|------------------|------------------|-------------------|------------------||
|-^2---------------|-^0---------------|-------------------|------------------||
|-^3---------------|-^2---------------|-^0----------------|-(0)--------------||
|-^3---------------|-^3---------------|-^2----------------|-(2)--------------||
|------------------|------------------|-^5----------------|-(5)--------------||


 Chorus
  D5          G5                    F5                    C5                D5
  Q  E Q  E E  E    +Q    E Q   E E  E    +Q    E Q   E E E   +Q   E Q  E E E
|----------------|---------------------|--------------------|-----------------|
|----------------|---------------------|--------------------|-----------------|
|-7--7----7---12-|-(12)--12----12---10-|-(10)--10----10---5-|-(5)--5----5---7-|
|-7--7----7---12-|-(12)--12----12---10-|-(10)--10----10---5-|-(5)--5----5---7-|
|-5--5----5---10-|-(10)--10----10----8-|--(8)---8-----8---3-|-(3)--3----3---5-|
|----------------|---------------------|--------------------|-----------------|
|
| Gtr I
| Q  E Q  E E  E    +Q    E Q   E E  E    +Q    E Q   E E E   +Q   E Q  E E E
|----------------|---------------------|--------------------|-----------------|
|----------------|---------------------|--------------------|-----------------|
|-7--7----7----7-|--(7)---7-----7----5-|--(5)---5-----5---0-|-(0)--0----0---7-|
|-7--7----7----9-|--(9)---9-----9----7-|--(7)---7-----7---2-|-(2)--2----2---7-|
|-8--8----8---10-|-(10)--10----10----8-|--(8)---8-----8---3-|-(3)--3----3---8-|
|----------------|---------------------|--------------------|-----------------|


                G5                    F5
  +Q   E Q  E E  E    +Q    E Q   E E  E
|------------------|---------------------|
|------------------|---------------------|
|-(7)--7----7---12-|-(12)--12----12---10-|
|-(7)--7----7---12-|-(12)--12----12---10-|
|-(5)--5----5---10-|-(10)--10----10----8-|
|------------------|---------------------|
|
| +Q   E Q  E E  E    +Q    E Q   E E  E
|------------------|---------------------|
|------------------|---------------------|
|-(7)--7----7----7-|--(7)---7-----7----5-|
|-(7)--7----7----9-|--(9)---9-----9----7-|
|-(8)--8----8---10-|-(10)--10----10----8-|
|------------------|---------------------|


                        D.S. al Coda
                        D.S. al Coda
                   C5
   +Q    E Q   E E E   +Q   E Q  Q  E
|--------------------|----------------||
|--------------------|----------------||
|-(10)--10----10---5-|-(5)--5----5----||
|-(10)--10----10---5-|-(5)--5----5----||
|--(8)---8-----8---3-|-(3)--3----3----||
|--------------------|----------------||
|
|  +Q    E Q   E E E   +Q   E Q  Q  E
|--------------------|----------------||
|--------------------|----------------||
|--(5)---5-----5---0-|-(0)--0----0----||
|--(7)---7-----7---2-|-(2)--2----2----||
|--(8)---8-----8---3-|-(3)--3----3----||
|--------------------|----------------||


 Verse
  &
  D5                                             (C5)
  Gtr III
                        >
   S  S E E  Q  Q.     +W           +W           W
|--------------------|------------|------------|-----------|
|--------------------|------------|------------|-----------|
|------------5--2----|-(2)--------|-(2)--------|-----------|
|-------3------------|------------|------------|-----------|
|--3s=5---5----------|------------|------------|-----------|
|--------------------|------------|------------|-----------|
|
| Gtr IV
|  >
|  W                   +W           +W           W
|--------------------|------------|------------|-----------|
|--------------------|------------|------------|-----------|
|-(7)----------------|-(7)--------|-(7)--------|-----------|
|-(7)----------------|-(7)--------|-(7)--------|-----------|
|-(5)----------------|-(5)--------|-(5)--------|-----------|
|--------------------|------------|------------|-----------|
|
| Gtr II
|  E    E H.           +W           +W           E E H.
|--------------------|------------|------------|-----------|
|--------------------|------------|------------|-----------|
|--------------------|------------|------------|-----5-----|
|-------3------------|------------|------------|---5-------|
|--5------5----------|-(5)--------|-(5)--------|-3---------|
|--------------------|------------|------------|-----------|


  N.C.
                      >
  S S E E  Q  Q.     +W
|------------------|------------|
|------------------|------------|
|----------5--2----|-(2)--------|
|-----3------------|------------|
|-3s5---5----------|------------|
|------------------|------------|
|
| Gtr II
| E   E H.           +W
|------------------|------------|
|------------------|------------|
|------------------|------------|
|-----3------------|------------|
|-5-----5----------|-(5)--------|
|------------------|------------|


                                        D.S.S.
                                           PM-|
  +W                         H.            E  E
|-------------------------|----------------------||
|-------------------------|----------------------||
|-(2)---------------------|----------------------||
|-------------------------|----------------------||
|-------------------------|----------------3--5--||
|-------------------------|----------------------||
|
| +E   E   Q    E   Q   E    Q   E  Q   E  Q
|-------------------------|----------------------||
|-------------------------|----------------------||
|------5--(5)---5--(5)--5-|-(5)--5-(5)--5-(5)----||
|-------------------------|----------------------||
|-(5)-(5)-(5)--(5)-(5)----|----------------------||
|-------------------------|----------------------||


 Interlude
  &&
  D5
  Gtr I
  E    E    E    E    E    E    E    E      +W
|----------------------------------------|------------------------------------|
|----------------------------------------|------------------------------------|
|----------10--------12-------------14---|-(14)-------------------------------|
|-----12--------12--------10---12--------|------------------------------------|
|----------------------------------------|------------------------------------|
|----------------------------------------|------------------------------------|
|
| Gtrs III, IV
| >
| W                                          W
|----------------------------------------|------------------------------------|
|----------------------------------------|------------------------------------|
|-7--------------------------------------|--(7)-------------------------------|
|-7--------------------------------------|--(7)-------------------------------|
|-5--------------------------------------|--(5)-------------------------------|
|----------------------------------------|------------------------------------|
|
| Gtr V
| S S  S S  S S  S S  S S  S S  S S  S S     S  S S S S S S S S S S S S S S S
|----------------------------------------|------------------------------------|
|----------------------------------------|------------------------------------|
|----------------------------------------|------------------------------------|
|-7-5--3-5--7-5--3-5--7-5--3-5--7-5--3-5-|---7--5-3-5-7-5-3-5-7-5-3-5-7-5-3-5-|
|----------------------------------------|------------------------------------|
|----------------------------------------|------------------------------------|


   Q         E    E     E     E    E    E      +E     E    E    E    E    E    Q
|-------------------------------------------|---------------------------------------------|
|-------------------------------------------|---------------------------------------------|
|----------------14---(10)--------14--------|--------12--------10---12--------------------|
|-----------12---------------12--------12---|-(12)--------12-------------12---10----------|
|-------------------------------------------|---------------------------------------------|
|-------------------------------------------|---------------------------------------------|
|
| +W                                           +W
|-------------------------------------------|---------------------------------------------|
|-------------------------------------------|---------------------------------------------|
|-(7)---------------------------------------|--(7)----------------------------------------|
|-(7)---------------------------------------|--(7)----------------------------------------|
|-------------------------------------------|---------------------------------------------|
|-------------------------------------------|---------------------------------------------|
|
|  S  S S S  S S  S S   S  S  S S  S S  S S     S  S  S S  S S  S S  S S  S S  S S S S
|-------------------------------------------|---------------------------------------------|
|-------------------------------------------|---------------------------------------------|
|-------------------------------------------|---------------------------------------------|
|--7--5-3-5--7-5--3-5---7--5--3-5--7-5--3-5-|---7--5--3-5--7-5--3-5--7-5--3-5--7-5-3-5----|
|-------------------------------------------|---------------------------------------------|
|-------------------------------------------|---------------------------------------------|


   +W                                   Q         E    E    E    E    E    E
|------------------------------------|-----------------------------------------|
|------------------------------------|-----------------------------------------|
|------------------------------------|-----------------------------------------|
|-(10)-------------------------------|-----------10---10---10---10---10---12---|
|------------------------------------|-----------------------------------------|
|------------------------------------|-----------------------------------------|
|
|  +W                                  +W
|------------------------------------|-----------------------------------------|
|------------------------------------|-----------------------------------------|
|--(7)-------------------------------|-(7)-------------------------------------|
|--(7)-------------------------------|-(7)-------------------------------------|
|------------------------------------|-----------------------------------------|
|------------------------------------|-----------------------------------------|
|
|   S  S S S S S S S S S S S S S S S    S  S S S  S S  S S  S S  S S  S S  S S
|------------------------------------|-----------------------------------------|
|------------------------------------|-----------------------------------------|
|------------------------------------|-----------------------------------------|
|---7--5-3-5-7-5-3-5-7-5-3-5-7-5-3-5-|--7--5-3-5--7-5--3-5--7-5--3-5--7-5--3-5-|
|------------------------------------|-----------------------------------------|
|------------------------------------|-----------------------------------------|


                                                                 N.C.
   +W                                   W
|------------------------------------|-----------------------------------------|
|------------------------------------|-----------------------------------------|
|------------------------------------|-----------------------------------------|
|-(12)-------------------------------|-10--------------------------------------|
|------------------------------------|-----------------------------------------|
|------------------------------------|-----------------------------------------|
|
|  +W                                  +H.                       +E     E
|------------------------------------|-----------------------------------------|
|------------------------------------|-----------------------------------------|
|--(7)-------------------------------|-(7)-----------------------(7)\----------|
|--(7)-------------------------------|-(7)-------------------------------------|
|------------------------------------|----------------------------------5------|
|------------------------------------|-----------------------------------------|
|
|   S  S S S S S S S S S S S S S S S    S  S S S S S S S S S S S  S   S S S
|------------------------------------|-----------------------------------------|
|------------------------------------|-----------------------------------------|
|------------------------------------|-----------------------------------------|
|---7--5-3-5-7-5-3-5-7-5-3-5-7-5-3-5-|--7--5-3-5-7-5-3-5-7-5-3-5--7---5-3-5----|
|------------------------------------|-----------------------------------------|
|------------------------------------|-----------------------------------------|


  Gtr III
      PM----------------------|         PM----------------------|
  E   E   E   E   E   E   E   E     E   E   E   E   E   E   E   E
|---------------------------------|---------------------------------|
|---------------------------------|---------------------------------|
|---------------------------------|---------------------------------|
|-----------------3---5-----------|-----------------3---5-----------|
|-----3---5---3-----------3---5---|-----3---5---3-----------3---5---|
|---------------------------------|---------------------------------|
|
| Gtr V
| S S S S S S S S S S S S S S S S   S S S S S S S S S S S S S S S S
|---------------------------------|---------------------------------|
|---------------------------------|---------------------------------|
|---------------------------------|---------------------------------|
|-7-5-3-5-7-5-3-5-7-5-3-5-7-5-3-5-|-7-5-3-5-7-5-3-5-7-5-3-5-7-5-3-5-|
|---------------------------------|---------------------------------|
|---------------------------------|---------------------------------|


      PM----------|
  E   E   E   E   E   E   E   E     +E    E   E   E   E   E   E   E
|---------------------------------|--------------------------------------|
|---------------------------------|--------------------------------------|
|---------------------------------|--------------------------------------|
|-----------------3---5-----------|-------------------3h==5--------------|
|-----3---5---3-----------3---5---|-(5)---3h==5p==3-----------3---5------|
|---------------------------------|--------------------------------------|
|
| S S S S S S S S S S S S S S S S    S  S S S S S S S S S S S S S S S
|---------------------------------|--------------------------------------|
|---------------------------------|--------------------------------------|
|---------------------------------|--------------------------------------|
|-7-5-3-5-7-5-3-5-7-5-3-5-7-5-3-5-|--7--5-3-5-7-5-3-5-7-5-3-5-7-5-3-5----|
|---------------------------------|--------------------------------------|
|---------------------------------|--------------------------------------|


  +E    E   E   E   E   E   E   E     +E    E   E   E   E   E   E   E
|-----------------------------------|-----------------------------------|
|-----------------------------------|-----------------------------------|
|-----------------------------------|-----------------------------------|
|-------------------3h==5-----------|-------------------3h==5-----------|
|-(5)---3h==5p==3-----------3---5---|-(5)---3h==5p==3-----------3---5---|
|-----------------------------------|-----------------------------------|
|
|  S  S S S S S S S S S S S S S S S    S  S S S S S S S S S S S S S S S
|-----------------------------------|-----------------------------------|
|-----------------------------------|-----------------------------------|
|-----------------------------------|-----------------------------------|
|--7--5-3-5-7-5-3-5-7-5-3-5-7-5-3-5-|--7--5-3-5-7-5-3-5-7-5-3-5-7-5-3-5-|
|-----------------------------------|-----------------------------------|
|-----------------------------------|-----------------------------------|


  +E    E   E   E   E   E   e   E     +E    E   E   E    E     E      Q
|-----------------------------------|--------------------------------------------|
|-----------------------------------|--------------------------------------------|
|-----------------------------------|--------------------------------------------|
|-------------------3h==5-----------|--------------------------------------------|
|-(5)---3h==5p==3-----------3---5---|-(5)---3h==5p==3-----------------3----------|
|-----------------------------------|-------------------[3]---[3]b5--------------|
|
|  S  S S S S S S S S S S S S S S S    S  S S S S S S S  S  S  S    S S S S S
|-----------------------------------|--------------------------------------------|
|-----------------------------------|--------------------------------------------|
|-----------------------------------|--------------------------------------------|
|--7--5-3-5-7-5-3-5-7-5-3-5-7-5-3-5-|--7--5-3-5-7-5-3-5--7--5--3----5-7-5-3-5----|
|-----------------------------------|--------------------------------------------|
|-----------------------------------|--------------------------------------------|


  G5
   W
|----------------------------------|
|----------------------------------|
|----------------------------------|
|--5-------------------------------|
|--5-------------------------------|
|--5-------------------------------|
|
|  S S S S S S S S S S S S S S S S
|----------------------------------|
|----------------------------------|
|----------------------------------|
|--7-5-3-5-7-5-3-5-7-5-3-5-7-5-3-5-|
|----------------------------------|
|----------------------------------|
|
| Gtr I
|  W
|----------------------------------|
|----------------------------------|
|--7-------------------------------|
|--9-------------------------------|
|-10-------------------------------|
|----------------------------------|


   +W
|-----------------------------------------------------------||
|-----------------------------------------------------------||
|-----------------------------------------------------------||
|--(5)------------------------------------------------------||
|--(5)------------------------------------------------------||
|--(5)------------------------------------------------------||
|
| Gtr IV
|   E   H               a  Q.
|-----------------------------------------------------------||
|-----------------------------------------------------------||
|-----------------------------------------------------------||
|-----------------------------------------------------------||
|------10s==============x-----------------------------------||
|-----------------------------------------------------------||
|
|  +H        T  T  T  T    T   T  T  T  T  T  T  T T T T T
|-----------------------------------------------------------||
|-----------20-18-17----------------------------------------||
|--(7)---------------19---17--16-14-------------------------||
|--(9)------------------------------17-15-14-12-10-9-7-5-3--||
|-(10)------------------------------------------------------||
|-----------------------------------------------------------||


 Chorus
  D5          G5                    F5                    C5                D5
  Gtrs III, IV
  Q  E Q  E E  E    +Q    E Q   E E  E    +Q    E Q   E E E   +Q   E Q  E E E
|----------------|---------------------|--------------------|-----------------|
|----------------|---------------------|--------------------|-----------------|
|-7--7----7---12-|-(12)--12----12---10-|-(10)--10----10---5-|-(5)--5----5---7-|
|-7--7----7---12-|-(12)--12----12---10-|-(10)--10----10---5-|-(5)--5----5---7-|
|-5--5----5---10-|-(10)--10----10----8-|--(8)---8-----8---3-|-(3)--3----3---5-|
|----------------|---------------------|--------------------|-----------------|
|
| Gtr I
| Q  E Q  E E  E    +Q    E Q   E E  E    +Q    E Q   E E E   +Q   E Q  E E E
|----------------|---------------------|--------------------|-----------------|
|----------------|---------------------|--------------------|-----------------|
|-7--7----7----7-|--(7)---7-----7----5-|--(5)---5-----5---0-|-(0)--0----0---7-|
|-7--7----7----9-|--(9)---9-----9----7-|--(7)---7-----7---2-|-(2)--2----2---7-|
|-8--8----8---10-|-(10)--10----10----8-|--(8)---8-----8---3-|-(3)--3----3---8-|
|----------------|---------------------|--------------------|-----------------|


                  G5                    F5
    +Q   E Q  E E  E    +Q    E Q   E E  E
||-------------------|---------------------|
||o------------------|---------------------|
||--(7)--7----7---12-|-(12)--12----12---10-|
||--(7)--7----7---12-|-(12)--12----12---10-|
||o-(5)--5----5---10-|-(10)--10----10----8-|
||-------------------|---------------------|
|
|   +Q   E Q  E E  E    +Q    E Q   E E  E
||-------------------|---------------------|
||o------------------|---------------------|
||--(7)--7----7----7-|--(7)---7-----7----5-|
||--(7)--7----7----9-|--(9)---9-----9----7-|
||o-(8)--8----8---10-|-(10)--10----10----8-|
||-------------------|---------------------|


                   C5                D5
   +Q    E Q   E E E   +Q   E Q  E E E
|--------------------|-------------------||
|--------------------|------------------o||
|-(10)--10----10---5-|-(5)--5----5---7---||
|-(10)--10----10---5-|-(5)--5----5---7---||
|--(8)---8-----8---3-|-(3)--3----3---5--o||
|--------------------|-------------------||
|
|  +Q    E Q   E E E   +Q   E Q  E E E
|--------------------|-------------------||
|--------------------|------------------o||
|--(5)---5-----5---0-|-(0)--0----0---7---||
|--(7)---7-----7---2-|-(2)--2----2---7---||
|--(8)---8-----8---3-|-(3)--3----3---8--o||
|--------------------|-------------------||


                G5                    F5
  +Q   E Q  E E  E    +Q    E Q   E E  E
|------------------|---------------------|
|------------------|---------------------|
|-(7)--7----7---12-|-(12)--12----12---10-|
|-(7)--7----7---12-|-(12)--12----12---10-|
|-(5)--5----5---10-|-(10)--10----10----8-|
|------------------|---------------------|
|
| +Q   E Q  E E  E    +Q    E Q   E E  E
|------------------|---------------------|
|------------------|---------------------|
|-(7)--7----7----7-|--(7)---7-----7----5-|
|-(7)--7----7----9-|--(9)---9-----9----7-|
|-(8)--8----8---10-|-(10)--10----10----8-|
|------------------|---------------------|
|
|  W                   W
|------------------|---------------------|
|------------------|---------------------|
|------------------|---------------------|
|------------------|---------------------|
|------------------|---------------------|
|------------------|---------------------|


                    C5
                    Gtr IV
   +Q     E Q   E E E   +Q     E  Q    Q    E
|---------------------|------------------------||
|---------------------|------------------------||
|-(10)---10----10---5-|-(5)----5-------5-------||
|-(10)---10----10---5-|-(5)----5-------5-------||
|--(8)----8-----8---3-|-(3)----3-------3-------||
|---------------------|------------------------||
|
|  +Q     E Q   E E E   +Q     E  Q    Q    E
|---------------------|------------------------||
|---------------------|------------------------||
|--(5)----5-----5---0-|-(0)----0-------0-------||
|--(7)----7-----7---2-|-(2)----2-------2-------||
|--(8)----8-----8---3-|-(3)----3-------3-------||
|---------------------|------------------------||
|
|                   Gtr III
|   H..             E    E   E E  E  E E E  E
|---------------------|------------------------||
|---------------------|--------------------[3]-||
|---------------------|------------------------||
|---------------------|----------[3]-5---------||
|---------------------|-----/3-5-------5-3-----||
|---------------------|------------------------||


 Outro
  N.C.
  Gtrs I, IV
   Q    E Q   Q   E   +E  E E Q   Q   E    Q    E Q   Q   E   +E  E E Q  Q  E
|-------------------|-------------------|-------------------|-----------------|
|-------8-6---5-----|-------8-6---5-----|-------8-6---5---5-|-(5)-5-6-5-------|
|--7--------------7-|-(7)-7-----------7-|--5----------------|------------7--5-|
|-------------------|-------------------|-------------------|-----------------|
|-------------------|-------------------|-------------------|-----------------|
|-------------------|-------------------|-------------------|-----------------|
|
| Gtr III
|  E  E E E E E E E    E  E E E E E E E   +E  E E E E E E E   +E  E E Q  Q  E
|-------------------|-------------------|-------------------|-----------------|
|-[3]-3-3-3-3-3-3-3-|--3--3-3-3-3-3-3-6-|-(6)-3-3-3-3-3-3-5-|-(5)-5-6-5-------|
|-------------------|-------------------|-------------------|------------7--5-|
|-------------------|-------------------|-------------------|-----------------|
|-------------------|-------------------|-------------------|-----------------|
|-------------------|-------------------|-------------------|-----------------|


   Q        E     Q        Q        E   +E     E  E  Q        Q      E
|-------------------------------------|--------------------------------|
|-----------8-----6--------5----------|-----------8--6--------5--------|
|--7--------------------------------7-|-(7)----7---------------------7-|
|-------------------------------------|--------------------------------|
|-------------------------------------|--------------------------------|
|-------------------------------------|--------------------------------|
|
|  E     E  E     E  E     E  E     E    S  S  E  E  S  S  E  E   E  E
|-------------------------------------|--------------------------------|
|-------10-------10-------10-------10-|-13p10----10-13p10----10-/15-18-|
|-12b14----12b14----12b14----12b14----|-------12----------12-----------|
|-------------------------------------|--------------------------------|
|-------------------------------------|--------------------------------|
|-------------------------------------|--------------------------------|


   Q      E  Q          Q        E   +E     E  E  Q     Q     E
|----------------------------------|-----------------------------|
|---------8--6----------5--------5-|-(5)----5--6--5--------------|
|--5-------------------------------|--------------------7-----5--|
|----------------------------------|-----------------------------|
|----------------------------------|-----------------------------|
|----------------------------------|-----------------------------|
|
|  Q      E  E  E      +E   +E   E    S  S  E  E  E  E  E  E  E
|-15b16r=15-13-15b17==(15)r(15)-13-|----------------13-----------|
|----------------------------------|-15p13----13-15----15-13-----|
|----------------------------------|-------14----------------14--|
|----------------------------------|-----------------------------|
|----------------------------------|-----------------------------|
|----------------------------------|-----------------------------|


                  >
    W            +W            +W            +W
|-------------|-------------|-------------|---------|
|-------------|-------------|-------------|---------|
|---7---------|--(7)--------|--(7)--------|--(7)----|
|---7---------|--(7)--------|--(7)--------|--(7)----|
|-------------|-------------|-------------|---------|
|-------------|-------------|-------------|---------|
|
|   <             >
|   W            +W            +W            +W
|-------------|-------------|-------------|---------|
|--13---------|-(13)--------|-(13)--------|-(13)----|
|-(12)--------|-(12)--------|-(12)--------|-(12)----|
|-------------|-------------|-------------|---------|
|-------------|-------------|-------------|---------|
|-------------|-------------|-------------|---------|


   +W            +W            +W
|-------------|-------------|---------|
|-------------|-------------|---------|
|--(7)--------|--(7)--------|--(7)----|
|--(7)--------|--(7)--------|--(7)----|
|-------------|-------------|---------|
|-------------|-------------|---------|
|
|  +W            +W            +W
|-------------|-------------|---------|
|-(13)--------|-(13)--------|-(13)----|
|-(12)--------|-------------|---------|
|-------------|-------------|---------|
|-------------|-------------|---------|
|-------------|-------------|---------|


   +W            +W             W
|-------------|-------------|---------*|
|-------------|-------------|---------*|
|--(7)--------|--(7)--------|---------*|
|--(7)--------|--(7)--------|---------*|
|-------------|-------------|---------*|
|-------------|-------------|---------*|
|
|  +W            +W            +W
|-------------|-------------|---------*|
|-(13)--------|-(13)--------|-(13)----*|
|-------------|-------------|---------*|
|-------------|-------------|---------*|
|-------------|-------------|---------*|
|-------------|-------------|---------*|


Duration Legend
---------------
W - whole; H - half; Q - quarter; E - 8th; S - 16th; T - 32nd; X - 64th; a - acciaccatura
+ - note tied to previous; . - note dotted; .. - note double dotted
Uncapitalized letters represent notes that are staccato (1/2 duration)
Irregular groupings are notated above the duration line
Duration letters will always appear directly above the note/fret number it represents the
duration for.  Duration letters with no fret number below them represent rests.  Multi-
bar rests are notated in the form Wxn, where n is the number of bars to rest for.  Low
melody durations appear below the staff

Tablature Legend
----------------
 h   - hammer-on
 p   - pull-off
 b   - bend
 pb  - pre-bend
 r   - bend release (if no number after the r, then release immediately)
 /\  - slide into or out of (from/to "nowhere")
 s   - legato slide
 S   - shift slide
  - natural harmonic
[n]  - artificial harmonic
n(n) - tapped harmonic
 ~   - vibrato
 tr  - trill
 T   - tap
 TP  - trem. picking
 PM  - palm muting
\n/  - tremolo bar dip; n = amount to dip
 \n  - tremolo bar down
 n/  - tremolo bar up
/n\  - tremolo bar inverted dip
 =   - hold bend; also acts as connecting device for hammers/pulls
 <>  - volume swell (louder/softer)
 x   - on rhythm slash represents muted slash
 o   - on rhythm slash represents single note slash

Misc Legend
-----------
 |  - bar
||  - double bar
||o - repeat start
o|| - repeat end
*|  - double bar (ending)
 :  - bar (freetime)
 $  - Segno
 &  - Coda
Tempo markers -  = BPM(8/16=s8/s16), where s8 = swing 8ths, s16 = swing 16ths
comments
We did not receive enough feedback on this tab! Please rate:
print report bad tab
1 2 3 4 5
I want to post or [tab]
guest
You may want to rate the tab now too:
select rating
Please do not post tabs as comments. Select "correction" instead!