Oops, an error
Loading. Please wait.

Dandelion Tab

104 views 1 this week
1 commentread comment
1 2 3 4 5
excellent!
x 2
Autoscroll
+/-
esc
set tempo
stop
Contributor
Difficulty
Tuning
advanced
D A D G B E
NEW! There's an official Ultimate Guitar app which is ideal
for learning songs when you're away from computer. Get the app
WARNING: You are trying to view
                                    content from Ultimate-Guitar.com
                                    in an unauthorized application,
                                    which is prohibited.

                                    Please use an official Ultimate
                                    Guitar Tabs application for iPhone,
                                    iPad or Android to access legitimate
                                    chords, guitar, bass, and drum tabs
                                    from Ultimate-Guitar.com database.

                                    Type "ultimate guitar tabs" in Apple
                                    App Store's or Android Market's
                                    search to find the application.
PH = Pinched harmonic
PM = Palm mute
* = harmonic
/ = slide forward
\ = slide back
h = hammer on 
p = pull off
                
    E|--------------------|
    B|--------------------|
GTR G|--------------------|
1+2 D|-0------------0-----|
    A|-0------------0-----|
    D|-0------------0-----|
                    PM

    E|--------------------------------|
    B|--------------------------------|
GTR G|--------------------------------|
1+2 D|--------------------------------| x2
    A|-00-00-000--0000-00-0-000--0-00-|
    D|-00-00-000--0000-00-0-000--0-00-|
       PM PM P M  PMPM PMPM P M PM PM

PAUSE

    E|--------------------------------|
    B|--------------------------------|
GTR G|--------------------------------|
1+2 D|--------------------------------| x3
    A|-00-00-000--0000-00-0-000--0-00-|
    D|-00-00-000--0000-00-0-000--0-00-|
       PM PM P M  PMPM PMPM P M PM PM

PAUSE

    E|--------------------------------|
    B|--------------------------------|
GTR G|--------------------------------|
1+2 D|--------------------------------| x1
    A|-00-00-000--0000-00-0-000--0-00-|
    D|-00-00-000--0000-00-0-000--0-00-|
       PM PM P M  PMPM PMPM P M PM PM

    E|-------------------------------|
    B|-------------------------------|
GTR G|---------4--4------------------|
 1  D|---------3--3------------------| x7
    A|---------2--2------------------|
    D|-1-0-1-0-------4-3-0-5-4-0-6-5-|
       P M P M       P M P M P M P M

    E|-------------------------------|
    B|-------------------------------|
GTR G|---------4--4------------------|
 2  D|---------3--3------------------| x7
    A|---------2--2------------------|
    D|-1-/9-\1-------4-3-0-5-4-0-6-5-|
                     P M P M P M P M

    E|---------------------------------------------------------|
    B|---------------------------------------------------------|
GTR G|---------4------------4------------4---------------------|
1+2 D|---------3------------3------------3---------------------|
    A|---------2--00000-000-2--00000-000-2-000-----------------|
    D|-1-/9-\1----00000-000----00000-000---000-4-3-0-5-4-0-6-5-|
                  PMP M P M    PMP M P M   P M

    E|-------------------------------------------------------------------|
    B|-------------------------------------------------------------------|
GTR G|---------4------------4------------4-------------------------------|
1+2 D|---------3------------3------------3-------------------------------|
    A|---------2--00000-000-2--00000-000-2-00000-------------------------|
    D|-1-/9-\1----00000-000----00000-000---00000-4-3-0-5-4-0-6-5-0-7-6-5-|
                  PMP M P M    PMP M P M   PMP M

    E|-----------------------------------------------------------|
    B|-----------------------------------------------------------|
GTR G|-4------------4------------4-------------------------------|
1+2 D|-3------------3------------3-------------------------------|
    A|-2--00000-000-2--00000-000-2-00000-------------------------|
    D|----00000-000----00000-000---00000-4-3-0-5-4-0-6-5-0-7-6-5-|
          PMP M P M    PMP M P M   PMP M

    E|--------------------------------------------------------|
    B|--------------------------------------------------------|
GTR G|-4------------4------------4----------------------------|
1+2 D|-3------------3------------3----------------------------|
    A|-2--00000-000-2--00000-000-2-00000----------------------|
    D|----00000-000----00000-000---00000-4-3-0-5-4-0-6-5-/-9--|
          PMP M P M    PMP M P M   PMP M

    E|---------------------------------|
    B|---------------------------------|
GTR G|---------------------------------|
 1  D|-9-------0-------9-------0-------|
    A|-8-------0-------8-------0---5PH-|
    D|-9-------0-------9-------0-------|

    E|---------------------------------|
    B|---------------------------------|
GTR G|---------------------------------|
 2  D|-9-------0-------3-3-3-3-3-3-3-3-|
    A|-8-------0-------2-2-2-2-2-2-0-0-|
    D|-9-------0-------0-0-0-0-0-0-0-0-|
                       P M P M P M P M

    E|---------------------------------|
    B|---------------------------------|
GTR G|---------------------------------|
 1  D|---------------------------------|
    A|-0-0-0-0-0-0-0-0-0-0-0-0-0-0-0-0-|
    D|-0-0-0-0-0-0-0-0-0-0-0-0-0-0-0-0-|
       P M P M P M P M P M P M P M P M

    E|------------------------------------|
    B|------------------------------------|
GTR G|------------------------------------|
 2  D|-----------------------------9PH-p8-|
    A|-0-0-0-0-0-0-0-0-0-0-0-0-0-0--------|
    D|-0-0-0-0-0-0-0-0-0-0-0-0-0-0--------|
       P M P M P M P M P M P M P M

    E|---------------------------------|
    B|---------------------------------|
GTR G|---------------------------------|
1+2 D|-9-------0-------9-------0-------|
    A|-8-------0-------8-------0-------|
    D|-9-------0-------9-------0-------|

    E|---------------------------------|
    B|---------------------------------|
GTR G|---------------------------------|
 1  D|---------------------------------|
    A|-0----------00---------0000-0000-|
    D|-0--3h6-2h3-00-3h6-2h3-0000-0000-|
      PM          PM         PMPM PMPM

    E|---------------------------------|
    B|---------------------------------|
GTR G|---------------------------------|
 2  D|---------------------------------|
    A|---------------------------------|
    D|---------------------------------|

    E|---------------------------------|
    B|---------------------------------|
GTR G|---------------------------------|
 1  D|---------------------------------|
    A|---------------------------------|
    D|---------------------------------|

    E|---------------------------------|
    B|---------------------------------|
GTR G|---------------------------------|
 2  D|---------------------------------|
    A|-0----------00---------0000-0000-|
    D|-0--3h6-2h3-00-3h6-2h3-0000-0000-|
      PM          PM         PMPM PMPM

    E|---------------------------------|
    B|---------------------------------|
GTR G|---------------------------------|
1+2 D|---------------------------------| x3
    A|-0----------00---------0000-0000-|
    D|-0--3h6-2h3-00-3h6-2h3-0000-0000-|
      PM          PM         PMPM PMPM

    E|---------------------------------|
    B|---------------------------------|
GTR G|----------------------------4*---|
1+2 D|----------------------------4*---| 
    A|-0----------00---------0000-4*---|
    D|-0--3h6-2h3-00-3h6-2h3-0000------|
      PM          PM         PMPM 

    E|--------------------------------------------------------|
    B|--------------------------------------------------------|
GTR G|--------9-----------8-9p8-------------9-----------------|
 1  D|---9-------9----9---------9-9h10-9h10----9---9------9-9-|
    A|-7---7--------6---6-----------------------------10------|
    D|--------------------------------------------------------|

    E|--------------------------------------------------------|
    B|--------------------------------------------------------|
GTR G|--------------------------------------------------------|
 2  D|--------------------------------------------------------|
    A|--------------------------------------------------------|
    D|--------------------------------------------------------|

    E|------------------------------------------|
    B|------------------------------------------|
GTR G|-9-9-9-9-9-9-9-9-9-9--7-7-7-7-7-4-4-4-4-4-|
1+2 D|------------------------------------------| x4
    A|-7-7-7-7-7-6-6-6-6-7--5-5-5-5-5-3-3-3-3-3-|
    D|------------------------------------------|

    E|------0------------------0----------------|
    B|----------------------0-------------------|
GTR G|------------------------------------------|
 1  D|------------------------------------------|
    A|------------------------------------------|
    D|------------------------------------------|

    E|-------------------------------pick slide-|
    B|------------------------------------------|
GTR G|------------------------------------------|
 2  D|------------------------------------------|
    A|------------------------------------------|
    D|------------------------------------------|

    E|------0------------------0--------|
    B|----------------------------------|
GTR G|----------------------------------|
 1  D|----------------------------------|
    A|----------------------------------|
    D|----------------------------------|

    E|----------------------------------|
    B|----------------------------------|
GTR G|----------------------------------|
 2  D|----------------------------------|
    A|----------------------------------|
    D|----------------------------------|

    E|-----------------------------------------------|
    B|-----------------------------------------------|
GTR G|-----------------------------------------------|
1+2 D|-----------------------------------------------|
    A|-0----------000---------0000-0000-0000-0000-00-|
    D|-0--3h6-2h3-000-3h6-2h3-0000-0000-0000-0000-00-|
      PM          P M         PMPM PMPM PMPM PMPM PM

    E|--------------------------------------------|
    B|--------------------------------------------|
GTR G|--------------------------------------------|
1+2 D|--------------------------------------------| x2
    A|---------000---------0000-0000-0000-0000-00-|
    D|-3h6-2h3-000-3h6-2h3-0000-0000-0000-0000-00-|
               P M         PMPM PMPM PMPM PMPM PM

    E|--------------------------|
    B|--------------------------|
GTR G|--------------------------|
 1  D|--------------------------| 
    A|---------000---------0000-|
    D|-3h6-2h3-000-3h6-2h3-0000-|
               P M         PMPM 

    E|--------------------------|
    B|--------------------------|
GTR G|--------------------------|
 2  D|--------------------------|
    A|--------------------------|
    D|--------------------------|

    E|------|
    B|------|
GTR G|------|
1+2 D|------| x16
    A|-0000-|
    D|-0000-|

    E|-----------------------------|
    B|----------11-----------11----|
GTR G|----------14-----------14----|
1+2 D|-----------------------------| x2
    A|-0--0--0------00-00-00-------|
    D|-0--0--0------00-00-00-------|
       PM PM PM     PM PM PM

    E|-----------------------------|
    B|----------11-----------11----|
GTR G|----------14-----------14----|
 1  D|-----------------------------| x2
    A|-0--0--0------00-00-00-------|
    D|-0--0--0------00-00-00-------|
       PM PM PM     PM PM PM

    E|-----------------------------|
    B|-----------------------------|
GTR G|-----------------------------|
 2  D|-----------------------------| x2
    A|-0--0--0--9*--00-00-00-9*----|
    D|-0--0--0--9*--00-00-00-9*----|
       PM PM PM     PM PM PM

    E|-----------------------------|
    B|----------11-----------11----|
GTR G|----------14-----------14----|
1+2 D|-----------------------------| x2
    A|-0--0--0------00-00-00-------|
    D|-0--0--0------00-00-00-------|
       PM PM PM     PM PM PM

    E|-----------------------------|
    B|-----------------------------|
GTR G|-----------------------------|
1+2 D|-----------------------------| 
    A|-0--0--0------00-00-00-------|
    D|-0--0--0------00-00-00-------|
       PM PM PM     PM PM PM

    E|-----------------------------|
    B|-----------------------------|
GTR G|-----------------------------|
1+2 D|-----------------------------| 
    A|-0--0--0------00-00-00-------|
    D|-0--0--0------00-00-00--/10\-|
       PM PM PM     PM PM PM

    E|--------------------------|
    B|--------------------------|
GTR G|--------------------------|
 1  D|--------------------------|
    A|--------------------------|
    D|-7h10p7-6h9p6-5h8p5-4h7p4-|
                               

    E|--------------------------|
    B|--------------------------|
GTR G|--------------------------|
 2  D|--------------------------|
    A|--------------------------|
    D|--------------------------|

    E|----------------------------------------------------|
    B|----------------------------------------------------|
GTR G|----------------------------------------------------|
 1  D|----------------------------------------------------|
    A|-0-0-----3-2-----0-0-3-2-1--------------------------|
    D|-0-0-3-2-----3-2-0-0-------7h10p7-6h9p6-5h8p5-4h7p4-|
       P M             P M

    E|----------------------------------------------------|
    B|----------------------------------------------------|
GTR G|----------------------------------------------------|
 2  D|----------------------------------------------------|
    A|-0-0-------------0-0--------------------------------|
    D|-0-0-------------0-0-------7h10p7-6h9p6-5h8p5-4h7p4-|
       P M             P M

    E|---------------------------------------------------|
    B|---------------------------------------------------|
GTR G|---------------------------------------------------|
 1  D|---------------------------------------------------|
    A|-0-0-----3-2-----0-0-3-2-1-------------------------|
    D|-0-0-3-2-----3-2-0-0-------0-2-3-2-3-5-0-2-3-2-3-5-|
       P M             P M       P M P M P M P M P M P M

    E|---------------------------------------------------|
    B|---------------------------------------------------|
GTR G|---------------------------------------------------|
 2  D|---------------------------------------------------|
    A|-0-0-------------0-0-------------------------------|
    D|-0-0-------------0-0-------0-2-3-2-3-5-0-2-3-2-3-5-|
       P M             P M       P M P M P M P M P M P M

    E|-----------------------------------------|
    B|-----------------------------------------|
GTR G|-----7PH-----7PH-------------------------|
1+2 D|-----------------------------------------| x4
    A|-0-0-----0-0-----------------------------|
    D|-0-0-----0-0-----0-2-3-2-3-5-0-2-3-2-3-5-|
       P M     P M     P M P M P M P M P M P M

    E|-----------------------------------------|
    B|-----------------------------------------|
GTR G|-----------------------------------------|
1+2 D|-----------------------------------------| x4
    A|-0-0-----0-0-----------------------------|
    D|-0-0-----0-0-----0-2-3-2-3-5-0-2-3-2-3-5-|
       P M     P M     P M P M P M P M P M P M

END
comments
We did not receive enough feedback on this tab! Please rate:
print report bad tab
1 2 3 4 5
1 comment total.
0 reply
ruker wrote on December 4 2012, 03:58 pm

Thanks for doing this song, it's my favorite from 7A7P!

I want to post or [tab]
guest
You may want to rate the tab now too:
select rating
Please do not post tabs as comments. Select "correction" instead!