Oops, an error
Loading. Please wait.

Someday Tab

95 views 1 this week
no commentswrite comment
1 2 3 4 5
excellent!
x 2
Autoscroll
+/-
esc
set tempo
stop
Contributor
Difficulty
Tuning
advanced
D A D G B E
Hey! There's an official Ultimate Guitar app which is ideal
for learning songs when you're away from computer. Get the app
WARNING: You are trying to view
                                    content from Ultimate-Guitar.com
                                    in an unauthorized application,
                                    which is prohibited.

                                    Please use an official Ultimate
                                    Guitar Tabs application for iPhone,
                                    iPad or Android to access legitimate
                                    chords, guitar, bass, and drum tabs
                                    from Ultimate-Guitar.com database.

                                    Type "ultimate guitar tabs" in Apple
                                    App Store's or Android Market's
                                    search to find the application.
SEVEN ANGELS SEVEN PLAGUES - SOMEDAY

    e|--------------------------------------------------------|
    B|-5----------5-------------------5---------5-------------|
GTR G|-8----------8-------------------8---------8-------------|
1+2 D|----0h2h5-1---0h2h5-0h1h2---------0h2h5-1---0h2h5-0h1h2-|
    A|--------------------------0-0-0-------------------------|
    D|--------------------------0-0-0-------------------------|
                                PMP M

    e|-------------------------------------------|
    B|-------------------------------------------|
GTR G|---------------------------1p0-0---1p0-----|
 1  D|-4-6-4-6-4-4-1-4-6-4-6-4-4-------2-----2-1-|
    A|-------------------------------------------|
    D|-------------------------------------------|

play above x2

    e|--------------------------------------------------------------|
    B|-5----------5-------------------5---------5-------------------|
GTR G|-8----------8-------------------8---------8-------------------|
1+2 D|----0h2h5-1---0h2h5-0h1h2---------0h2h5-1---0h2h5-0h1h2-------|
    A|--------------------------0-0-0-------------------------0-0-0-|
    D|--------------------------0-0-0-------------------------0-0-0-|
                                PMP M                         PMP M

    e|----------------------------------|
    B|----------------------------4---4-|
GTR G|----------------------------7---7-|
1+2 D|----------------------------------| 1,3,4
    A|-0000000--0000000--00000000---0---|
    D|-0000000--0000000--00000000---0---|
       PMPMPMPM PMPMPMPM PMPMPMPM PM

    e|--------------------------------|
    B|--------------------------------|
GTR G|--------------------------------|
1+2 D|--------------------------------| 2
    A|-0000000--0000000--0000- drums -|
    D|-0000000--0000000--0000---------|
       PMPMPMPM PMPMPMPM PMPM

    e|----------------------------------------------------------|
    B|----------------------------------------------------------|
GTR G|------8---8------8---8-----5-5-5-5------8---8-------------|
1+2 D|---------------------------5-5-5-5------------------------|
    A|-0-0--6-0-6-0-0--6-0-6-0-0-3-3-3-3-0-0--6-0-6-0-0- drums -|
    D|-0-0----0---0-0----0---0-0-3-3-3-3-0-0----0---0-0---------|
       P M   PM   P M   PM   P M         P M   PM   P M 

    e|--------------------|
    B|-5---------5--------|
GTR G|-8---------8--------|
1+2 D|--------------------| x3
    A|---0-0-0-0----------|
    D|---0-0-0-0----------|
         P M P M

    e|---------------------------------------|
    B|-5---------5---------------------------|
GTR G|-8---------8---------------------------|
1+2 D|---------------------------------------| 
    A|---0-0-0-0---0-0-0-0-1--1--1--1--1--1--|
    D|---0-0-0-0---0-0-0-0-1--1--1--1--1--1--|
         P M P M   P M P M P  M  P  M  P  M

    e|-------------------|
    B|-------------------|
GTR G|-------------------|
1+2 D|-------------------| x4
    A|-1--1--0--1--------|
    D|-1--1--0--1--------|
       P  M  P  M

    e|----------|
    B|----------|
GTR G|----------|
1+2 D|----------|
    A|-1--1--0--|
    D|-1--1--0--|
       P  M  PM

    e|-------------|
    B|-------------|
GTR G|-------------|
1+2 D|-------------| x8
    A|-11111111----|
    D|-11111111----|
       PMPMPMPM

    e|--------------------------------------|
    B|--------------------------------------|
GTR G|-7-7-777-7-7-777-3-3-333-10-10-101010-|
1+2 D|-7-7-777-7-7-777-3-3-333-10-10-101010-| x2
    A|-5-5-555-5-5-555-1-1-111-8--8--8-8-8--|
    D|-5-5-555-5-5-555-1-1-111-8--8--8-8-8--|

    e|------------------------------------------------------------|
    B|--------101010-111111--------------11\101010-8/101010-------|
GTR G|-777777---------------101010101010--------------------------|
1+2 D|--------7-7-7--8-8-8---------------8-\7-7-7--5/7-7-7--------| x2
    A|-555555---------------8-8-8-8-8-8---------------------0-0-0-|
    D|------------------------------------------------------0-0-0-|
                                                            PMP M
    e|---------|
    B|---------|
GTR G|-7--6--7-|
1+2 D|---------|
    A|-5--5--5-|
    D|---------|

    e|-----------|
    B|----3---3--|
GTR G|----6---6--|
1+2 D|-----------| x7
    A|-0----0----|
    D|-0----0----|
      PM   PM

    e|----------------------------------------|
    B|----------------------------------------|
GTR G|----------------------------------------|
1+2 D|----------------------------------------|
    A|-4-6-3-4-4-6-3-4--------3-5-2-3-3-5-2-3-|
    D|-4-6-3-4-4-6-3-4--------3-5-2-3-3-5-2-3-|
       P M P M P M P M        P M P M P M P M

    e|-----------|
    B|----3---3--|
GTR G|----6---6--|
1+2 D|-----------| x2
    A|-0----0----|
    D|-0----0----|
      PM   PM

    e|------------------------------------|
    B|---------5------------9*------------|
GTR G|---------8------------9*------------|
1+2 D|----------------------9*------------|
    A|-0--0--0------0--0--0-------3-5-2-3-|
    D|-0--0--0------0--0--0-------3-5-2-3-|
       PM P  M      PM P  M       P M P M

    e|---------------------------|
    B|---------5-----------------|
GTR G|---------8-----------------|
1+2 D|---------------------------|
    A|-0--0--0----0-0--0-3-5-2-3-|
    D|-0--0--0----0-0--0-3-5-2-3-|
       PM P  M    P M  PMP M P M

    e|-----------|
    B|----3---3--|
GTR G|----6---6--|
1+2 D|-----------| x7
    A|-0----0----|
    D|-0----0----|
      PM   PM

    e|-----------------------------------------------------|
    B|-----------------------------------------------------|
GTR G|-----------------------------------------------------|
1+2 D|-----------------------------------------------------| x2
    A|-----------------------------------------------------|
    D|-3-3-5-0-2-0-2-3-3-3-5-0-2-0-2-3-3-3-5-0-2-0-2-3-3-5-|
       P M P M P M P M P M P M P M P M P M P M P M P M P M 

    e|-------|
    B|-------|
GTR G|-------|
1+2 D|-------|
    A|-------|
    D|-3-3-5-|
       PMP M

    e|---------|
    B|---------|
GTR G|---------|
1+2 D|---------| x25
    A|-3-5-2-3-|
    D|-3-5-2-3-|

    e|---------------------|
    B|---------------------|
GTR G|---------------------|
 1  D|-----2-2-2-2-3-2-0---| x4
    A|-0-0---------------3-|
    D|-0-0-----------------|
       P M

    e|---------------------|
    B|---------------------|
GTR G|---------------------|
 2  D|---------------------| x4
    A|-0-0-----------------|
    D|-0-0-----------------|
       P M

    e|---------------------|
    B|---------------------|
GTR G|---------------------|
 1  D|-----2-2-2-2-3-2-0---| x4
    A|-0-0---------------3-|
    D|-0-0-----------------|
       P M

    e|---------------------|
    B|-----4---------------|
GTR G|-----7---------------|
 2  D|---------------------| x4
    A|-0-0-----------------|
    D|-0-0-----------------|
       P M

    e|---------------------|
    B|-----4---------------|
GTR G|-----7---------------|
1+2 D|---------------------| x7
    A|-0-0-----------------|
    D|-0-0-----------------|
       P M

    e|------------------|
    B|------------------|
GTR G|-0-2--2-2-3-2-0---|
 1  D|----------------3-|
    A|------------------|
    D|------------------|

    e|------------------|
    B|-3-5--5-5-6-5-3---|
GTR G|----------------5-|
 2  D|------------------|
    A|------------------|
    D|------------------|

    e|-------------------------------|
    B|-------------------------------|
GTR G|-3-----3-----3----3-2---3-2--2-|
1+2 D|-0-0-0-0-0-0-0-00-----5---0--0-| x2
    A|-0-0-0-0-0-0-0-00---------0--0-|
    D|-------------------------------|
         P M   P M   PM

    e|---------------------------------------------|
    B|-10-10-10-10-10-10-10-10-11-11-11-11-7-7-7-7-|
GTR G|---------------------------------------------|
1+2 D|-7--7--7--7--7--7--7--7--8--8--8--8--5-5-5-5-|
    A|---------------------------------------------|
    D|---------------------------------------------|

    e|-------------------------------|
    B|-------------------------------|
GTR G|-3-----3-----3----3-2---3-2--2-|
1+2 D|-0-0-0-0-0-0-0-00-----5---0--0-| 
    A|-0-0-0-0-0-0-0-00---------0--0-|
    D|-------------------------------|
         P M   P M   PM

    e|---------------------------------------------|
    B|---------------------------------------------|
GTR G|-1010101010101010-99999999-55555555-77777777-|
 1  D|---------------------------------------------| 1,3
    A|-8-8-8-8-8-8-8-8--77777777-33333333-55555555-|
    D|---------------------------------------------|

    e|---------------------------------------------|
    B|---------------------------------------------|
GTR G|---------------------------55555555-77777777-|
 2  D|----7---10p7-----7---10p7--------------------| 1,3
    A|-88---8-------88---8-------33333333-55555555-|
    D|---------------------------------------------|
       PM P M       PM P M

    e|--------------------------------------------------------------|
    B|--------------------------------------------------------------|
GTR G|-99999999-1010101010101010-1212121212121212-14141414-15151515-|
 1  D|--------------------------------------------------------------| 2
    A|-77777777-8-8-8-8-8-8-8-8--1010101010101010-12121212-13131313-|
    D|--------------------------------------------------------------|

    e|--------------------------------------------------------------|
    B|--------------------------------------------------------------|
GTR G|---------------------------1212121212121212-14141414-15151515-|
 2  D|----7---10p7-----7---10p7-------------------------------------| 2
    A|-88---8-------88---8-------1010101010101010-12121212-13131313-|
    D|--------------------------------------------------------------|
       PM P M       PM P M

    e|-------------------------------------------------------------|
    B|-------------------------------------------------------------|
GTR G|-99999999-1010101010101010-1212121212121212-1414141414141414-|
 1  D|-------------------------------------------------------------| 4
    A|-77777777-8-8-8-8-8-8-8-8--1010101010101010-1212121212121212-|
    D|-------------------------------------------------------------|

    e|-------------------------------------------------------------|
    B|-------------------------------------------------------------|
GTR G|---------------------------1212121212121212-1414141414141414-|
 2  D|----7---10p7-----7---10p7------------------------------------| 4
    A|-88---8-------88---8-------1010101010101010-1212121212121212-|
    D|-------------------------------------------------------------|
       PM P M       PM P M

    e|-----------------------------------------------------|
    B|-----------------------------------------------------|
GTR G|-151515151515-141414141414-121212121212-101010101010-|
1+2 D|-----------------------------------------------------| 1,3,5,7
    A|-131313131313-121212121212-101010101010-8-8-8-8-8-8--|
    D|-----------------------------------------------------|

    e|-----------------------------------------------------|
    B|-----------------------------------------------------|
GTR G|-141414141414-151515151515-121212121212-171717171717-|
1+2 D|-----------------------------------------------------| 2,6
    A|-121212121212-131313131313-101010101010-151515151515-|
    D|-----------------------------------------------------|

    e|-----------------------------------------------------|
    B|-----------------------------------------------------|
GTR G|-151515151515-171717171717-141414141414-191919191919-|
1+2 D|-----------------------------------------------------| 4,8
    A|-131313131313-151515151515-121212121212-171717171717-|
    D|-----------------------------------------------------|

    e|----------------------------------|
    B|----------------------------------|
GTR G|-1919-1919-19-19-19-19------------|
1+2 D|-------------------------0--------|
    A|-1717-1717-17-17-17-17---0--------|
    D|-------------------------0--------|
comments
We did not receive enough feedback on this tab! Please rate:
print report bad tab
1 2 3 4 5
I want to post or [tab]
guest
You may want to rate the tab now too:
select rating
Please do not post tabs as comments. Select "correction" instead!