Oops, an error
Loading. Please wait.

Hunting High And Low Tab

by A-ha
ver1
ver1

Whole song

Interactive

More versions @911Tabs.com
3,401 views 3 this week
no commentswrite comment
1 2 3 4 5
please rate
Autoscroll
+/-
esc
set tempo
stop
Contributor
Difficulty
Tabbers playing skills
novice
intermediate ++
WARNING: You are trying to view
                                    content from Ultimate-Guitar.com
                                    in an unauthorized application,
                                    which is prohibited.

                                    Please use an official Ultimate
                                    Guitar Tabs application for iPhone,
                                    iPad or Android to access legitimate
                                    chords, guitar, bass, and drum tabs
                                    from Ultimate-Guitar.com database.

                                    Type "ultimate guitar tabs" in Apple
                                    App Store's or Android Market's
                                    search to find the application.
                               HUNTING_HI_AND_LOW


Gtr I (E A D G B E) - 'Strings'
Gtr II (E A D G B E) - 'Voice'
Gtr III (E A D G B E) - 'Solo'

  Q=115
 4/4
  Gtr I
  W                 W                   W                     W
|-0--------------|--0-----------------|-1-------------------|-1---------|
|-1--------------|--1-----------------|-1-------------------|-1---------|
|-2--------------|--2-----------------|-2-------------------|-1---------|
|----------------|--------------------|---------------------|-----------|
|----------------|--------------------|---------------------|-----------|
|----------------|--------------------|---------------------|-----------|
|
| Gtr II
| H    +E  E E E   +H     +E  E +E  E   Q   E E +E  E +E  E   H    H
|----------7-5-7-|-(7)----(7)-5-(5)-7-|-8--10-8-(8)-7-(7)-5-|-4---------|
|-5----(5)-------|--------------------|---------------------|------6----|
|----------------|--------------------|---------------------|-----------|
|----------------|--------------------|---------------------|-----------|
|----------------|--------------------|---------------------|-----------|
|----------------|--------------------|---------------------|-----------|


  W                 W                  W                     W
|-5--------------|-------------------|---------------------|-4---------|
|-5--------------|--5----------------|-6-------------------|-6---------|
|-5--------------|--5----------------|-5-------------------|-6---------|
|----------------|--7----------------|-7-------------------|-----------|
|----------------|-------------------|---------------------|-----------|
|----------------|-------------------|---------------------|-----------|
|
| H    +E  E E E   +Q.   E E E +E  E   Q   E E +E  E +E  E   H    H
|----------7-5-7-|-(7)-------5-(5)-7-|-8--10-8-(8)-7-(7)-5-|-4---------|
|-5----(5)-------|-------------------|---------------------|------6----|
|----------------|-------------------|---------------------|-----------|
|----------------|-------------------|---------------------|-----------|
|----------------|-------------------|---------------------|-----------|
|----------------|-------------------|---------------------|-----------|


  W                 W
|----------------|--------------------|
|-4--------------|--4-----------------|
|-5--------------|--5-----------------|
|-5--------------|--5-----------------|
|----------------|--------------------|
|----------------|--------------------|
|
| H    E  E E  E    H     +E  E  E  E
|--------10-8-10-|-10----(10)-8-10-11-|
|-8--------------|--------------------|
|----------------|--------------------|
|----------------|--------------------|
|----------------|--------------------|
|----------------|--------------------|


    W                           W
|----------------------------|--3------------|
|---4------------------------|--3------------|
|---5------------------------|--4------------|
|---6------------------------|---------------|
|----------------------------|---------------|
|----------------------------|---------------|
|
|  +Q    E  E  +E   E  +E  E    Q.   E Q  Q
|-(11)--13-11-(11)-10-(10)-8-|-10------------|
|----------------------------|------------8--|
|----------------------------|---------------|
|----------------------------|---------------|
|----------------------------|---------------|
|----------------------------|---------------|


   H           H         W
|--1-----------3------|--5------------------|
|--1-----------3------|--5------------------|
|--2-----------4------|--7------------------|
|---------------------|---------------------|
|---------------------|---------------------|
|---------------------|---------------------|
|
|  E E +E   E  Q   Q     H     +E   E  E  E
|----8-(8)------------|---------------------|
|-10-------10-10--12--|-12----(12)-13-12-10-|
|---------------------|---------------------|
|---------------------|---------------------|
|---------------------|---------------------|
|---------------------|---------------------|


   +H     H       W
|--(5)----3----|--1------------------|
|--(5)----3----|--1------------------|
|--(7)----4----|--2------------------|
|--------------|---------------------|
|--------------|---------------------|
|--------------|---------------------|
|
|  +H     H       H     +E   E  E  E
|--------------|-12----(12)----------|
|-(10)---------|------------13-15----|
|--------------|------------------14-|
|--------------|---------------------|
|--------------|---------------------|
|--------------|---------------------|


    W                     W                      +H     H         W
|---1------------------|--3--------------------|-(3)----0------|--5----|
|---3------------------|--5--------------------|-(5)----2------|--6----|
|---2------------------|--5--------------------|-(5)----0------|--7----|
|----------------------|-----------------------|---------------|-------|
|----------------------|-----------------------|---------------|-------|
|----------------------|-----------------------|---------------|-------|
|
|  +H     E  E  +E   E    H     +E   E  +E   E    H.        Q     W
|-----------12-(12)-13-|-15----(15)-13-(13)-12-|-10--------12--|-------|
|----------------------|-----------------------|---------------|-10----|
|-(14)-----------------|-----------------------|---------------|-------|
|----------------------|-----------------------|---------------|-------|
|----------------------|-----------------------|---------------|-------|
|----------------------|-----------------------|---------------|-------|


  H     Q   Q     W                 +H.        Q     W
|-------5------|--5--------------|--(5)--------3--|--1------------------|
|-5-----6---3--|--5--------------|--(5)--------3--|--1------------------|
|-4-----5---4--|--7--------------|--(7)--------4--|--2------------------|
|-5---------5--|-----------------|----------------|---------------------|
|--------------|-----------------|----------------|---------------------|
|--------------|-----------------|----------------|---------------------|
|
| H     Q   Q     H     Q   E  E    +Q.   E H        H     +E   E  E  E
|--------------|-----------------|----------------|-12----(12)----------|
|-8----10--12--|-12----13--------|----------------|------------13-15----|
|--------------|-----------14-14-|-(14)-----------|------------------14-|
|--------------|-----------------|----------------|---------------------|
|--------------|-----------------|----------------|---------------------|
|--------------|-----------------|----------------|---------------------|


    W                     W                       W             W
|---5------------------|--3--------------------|--3----------|--5----|
|---6------------------|--5--------------------|--3----------|--6----|
|---7------------------|--5--------------------|--4----------|--7----|
|----------------------|-----------------------|-------------|-------|
|----------------------|-----------------------|-------------|-------|
|----------------------|-----------------------|-------------|-------|
|
|  +H     E  E  +E   E    H     +E   E  +E   E    H     H       W
|-----------12-(12)-13-|-15----(15)-13-(13)-12-|-10----12----|-------|
|----------------------|-----------------------|-------------|-10----|
|-(14)-----------------|-----------------------|-------------|-------|
|----------------------|-----------------------|-------------|-------|
|----------------------|-----------------------|-------------|-------|
|----------------------|-----------------------|-------------|-------|


  W            W                 W                 W
|------------|----------------|------------------|---------------------|
|-6----------|-5--------------|--5---------------|-6-------------------|
|-7----------|-5--------------|--5---------------|-5-------------------|
|-7----------|-7--------------|--7---------------|-7-------------------|
|------------|----------------|------------------|---------------------|
|------------|----------------|------------------|---------------------|
|
| H     H      H    +E  E E E   +H     E E +E  E   Q   E E +E  E +E  E
|------------|----------7-5-7-|-(7)------5-(5)-7-|-8--10-8-(8)-7-(7)-5-|
|------------|----------------|------------------|---------------------|
|------10----|-9----(9)-------|------------------|---------------------|
|------------|----------------|------------------|---------------------|
|------------|----------------|------------------|---------------------|
|------------|----------------|------------------|---------------------|


  W           W               W                  W
|-4---------|-5------------|-------------------|---------------------|
|-6---------|-5------------|--5----------------|-6-------------------|
|-5---------|-5------------|--5----------------|-5-------------------|
|-----------|--------------|--7----------------|-7-------------------|
|-----------|--------------|-------------------|---------------------|
|-----------|--------------|-------------------|---------------------|
|
| H    H      H    E E E E   +Q.   E E E +E  E   Q   E E +E  E +E  E
|-4---------|--------7-5-7-|-(7)-------5-(5)-7-|-8--10-8-(8)-7-(7)-5-|
|------6----|-5------------|-------------------|---------------------|
|-----------|--------------|-------------------|---------------------|
|-----------|--------------|-------------------|---------------------|
|-----------|--------------|-------------------|---------------------|
|-----------|--------------|-------------------|---------------------|


  W           W
|-4---------|-3----------------|
|-6---------|-4----------------|
|-6---------|-5----------------|
|-----------|------------------|
|-----------|------------------|
|-----------|------------------|
|
| H    H      H    +E   E E  E
|-4---------|----------10-8-10-|
|------6----|-8----(8)---------|
|-----------|------------------|
|-----------|------------------|
|-----------|------------------|
|-----------|------------------|


    W                      W
|-----------------------|--------------------------|
|---4-------------------|--4-----------------------|
|---5-------------------|--5-----------------------|
|---5-------------------|--6-----------------------|
|-----------------------|--------------------------|
|-----------------------|--------------------------|
|
|  +H      +E  E +E   E    Q   E  E  +E   E  +E  E
|-(10)----(10)-8-(8)-10-|-11--13-11-(11)-10-(10)-8-|
|-----------------------|--------------------------|
|-----------------------|--------------------------|
|-----------------------|--------------------------|
|-----------------------|--------------------------|
|-----------------------|--------------------------|


   W              H           H          W                     +H      H
|--3-----------|--5-----------3-------|--0------------------|--(0)----------|
|--3-----------|--6-----------3-------|--3------------------|--(3)-----3----|
|--4-----------|--5-----------4-------|--2------------------|--(2)-----4----|
|--------------|----------------------|---------------------|----------5----|
|--------------|----------------------|---------------------|---------------|
|--------------|----------------------|---------------------|---------------|
|
|  H    Q  E E    E E +E   E  Q   E E    H     +E   E  E  E    +Q.   E H
|-10-----------|----8-(8)-------------|---------------------|---------------|
|----------8-8-|-10-------10-10--12---|-12----(12)-13-------|---------------|
|--------------|----------------------|---------------14-14-|-(14)----------|
|--------------|----------------------|---------------------|---------------|
|--------------|----------------------|---------------------|---------------|
|--------------|----------------------|---------------------|---------------|


   W                      W
|--1------------------|---5---------------|
|--1------------------|---6---------------|
|--2------------------|---7---------------|
|---------------------|-------------------|
|---------------------|-------------------|
|---------------------|-------------------|
|
|  H     +E   E  E  E    +H     E  E E  E
|-12----(12)----------|-----------12---13-|
|------------13-15----|-------------------|
|------------------14-|-(14)--------------|
|---------------------|-------------------|
|---------------------|-------------------|
|---------------------|-------------------|


   W                      +H     H
|--3--------------------|-(3)----3------|
|--5--------------------|-(5)----5------|
|--5--------------------|-(5)----6------|
|-----------------------|---------------|
|-----------------------|---------------|
|-----------------------|---------------|
|
|  H     +E   E  +E   E    H.        Q
|-15----(15)-13-(13)-12-|-10--------12--|
|-----------------------|---------------|
|-----------------------|---------------|
|-----------------------|---------------|
|-----------------------|---------------|
|-----------------------|---------------|


   W          H       Q    Q      W                     +H.       Q
|--5--------|-3-------5----3---|--0------------------|--(0)-------3--|
|--6--------|-5-------6----3---|--3------------------|--(3)-------3--|
|--7--------|-4-------5----4---|--2------------------|--(2)-------4--|
|-----------|------------------|---------------------|---------------|
|-----------|------------------|---------------------|---------------|
|-----------|------------------|---------------------|---------------|
|
|  W          Q.   E  E E  E E    H     +E   E  E  E    +H     H
|-----------|------------------|---------------------|---------------|
|-10--------|-8------10---12---|-12----(12)-13-------|---------------|
|-----------|------------------|---------------14-14-|-(14)----------|
|-----------|------------------|---------------------|---------------|
|-----------|------------------|---------------------|---------------|
|-----------|------------------|---------------------|---------------|


   W                      W
|--5------------------|---5-------------------|
|--6------------------|---6-------------------|
|--5------------------|---7-------------------|
|---------------------|-----------------------|
|---------------------|-----------------------|
|---------------------|-----------------------|
|
|  H     +E   E  E  E    +Q.   E E  E  +E   E
|-12----(12)----------|------------12-(12)-13-|
|------------13-15----|-----------------------|
|------------------14-|-(14)------------------|
|---------------------|-----------------------|
|---------------------|-----------------------|
|---------------------|-----------------------|


   W                       W
|-----------------------|--3-----------|
|--5--------------------|--3-----------|
|--5--------------------|--4-----------|
|--5--------------------|--------------|
|-----------------------|--------------|
|-----------------------|--------------|
|
|  H     +E   E  +E   E    H.       Q
|-15----(15)-13-(13)-12-|-10-------12--|
|-----------------------|--------------|
|-----------------------|--------------|
|-----------------------|--------------|
|-----------------------|--------------|
|-----------------------|--------------|


   W               W            W          +H.      Q
|--1-------------|-1----------|-0--------|-(0)---------|
|--3-------------|-3----------|-1--------|-(1)------3--|
|--2-------------|-2----------|-2--------|-(2)------4--|
|----------------|------------|----------|----------5--|
|----------------|------------|----------|-------------|
|----------------|------------|----------|-------------|
|
|  H     +Q.   E   H     H      W           W
|----------------|------------|----------|-------------|
|-10----(10)-----|------------|----------|-------------|
|----------------|------10----|----------|-------------|
|----------------|------------|----------|-------------|
|----------------|------------|----------|-------------|
|----------------|------------|----------|-------------|


  W          W             W                 W
|-1--------|-5-----------|-3---------------|--------------------|
|-1--------|-6-----------|-5---------------|-5------------------|
|-2--------|-5-----------|-5---------------|-5------------------|
|----------|-------------|-----------------|-5------------------|
|----------|-------------|-----------------|--------------------|
|----------|-------------|-----------------|--------------------|
|
| Gtr III
| W          H    Q  E E   E E E E E E E E   E E  E E +E  E E E
|----------|-------------|-5-----3---------|-7-8-10-------------|
|----------|-----------5-|---5-5---1-3-5---|--------8-(8)-------|
|----------|-------------|-----------------|--------------9-7-5-|
|----------|-------------|-----------------|--------------------|
|----------|-------------|-----------------|--------------------|
|----------|-------------|-----------------|--------------------|


  W          W           W           W
|----------|----------|--3--------|--5----|
|-5--------|-5--------|--5--------|--6----|
|-5--------|-4--------|--4--------|--5----|
|-7--------|-5--------|-----------|-------|
|----------|----------|-----------|-------|
|----------|----------|-----------|-------|
|
| Gtr II
| W          W           W           W
|-8--------|-7--------|-15--------|-------|
|----------|----------|-----------|-17----|
|----------|----------|-----------|-------|
|----------|----------|-----------|-------|
|----------|----------|-----------|-------|
|----------|----------|-----------|-------|


   W                     W
|--3------------------|--0--------------------|
|--3------------------|--1--------------------|
|--4------------------|--2--------------------|
|---------------------|-----------------------|
|---------------------|-----------------------|
|---------------------|-----------------------|
|
|  Q.    E  E E  E  E    Q   Q   +E   E  E  E
|-19----19-19---17----|-15--------------------|
|------------------17-|-----17--(17)-15-17-17-|
|---------------------|-----------------------|
|---------------------|-----------------------|
|---------------------|-----------------------|
|---------------------|-----------------------|


   +H     H          W
|--(0)----3-------|--1--------------------|
|--(1)----3-------|--1--------------------|
|--(2)----4-------|--2--------------------|
|-----------------|-----------------------|
|-----------------|-----------------------|
|-----------------|-----------------------|
|
|  +H     Q  E  E    Q   E  E  +E   E  Q
|-----------------|-----------------------|
|-(17)---------17-|-17--15-15-(15)-13-13--|
|-----------------|-----------------------|
|-----------------|-----------------------|
|-----------------|-----------------------|
|-----------------|-----------------------|


  W                   W                     +H     H      W
|-5----------------|--5------------------|--(5)---------|-5----|
|-6----------------|--5------------------|--(5)----3----|-6----|
|-5----------------|--5------------------|--(5)----4----|-5----|
|------------------|---------------------|---------5----|------|
|------------------|---------------------|--------------|------|
|------------------|---------------------|--------------|------|
|
| Q   Q   Q   E  E    H     +E   E  E  E    +H     H      W
|------------------|------------17-15-17-|-(17)---------|------|
|----13--15--13-15-|-17----(17)----------|--------------|------|
|------------------|---------------------|--------------|------|
|------------------|---------------------|--------------|------|
|------------------|---------------------|--------------|------|
|------------------|---------------------|--------------|------|


  W             W                   W                W
|-5-----------|-------------------|----------------|--------------|
|-6-----------|-4-----------------|-6--------------|-4------------|
|-7-----------|-5-----------------|-7--------------|-5------------|
|-------------|-5-----------------|-8--------------|-6------------|
|-------------|-------------------|----------------|--------------|
|-------------|-------------------|----------------|--------------|
|
| Gtr III
| H    Q  E E   E E E E +E  E E E   E E E E Q  E E   H    E E E E
|-------------|-3-1-3-4-(4)-3-1-3-|-------1-4--3-1-|------3-1-3-4-|
|-------------|-------------------|-----1----------|--------------|
|-----------5-|-------------------|---3------------|--------------|
|-------------|-------------------|----------------|--------------|
|-------------|-------------------|----------------|--------------|
|-------------|-------------------|----------------|--------------|


   W                     H             H
|---------------------|--5-------------3------------|
|--3------------------|--6-------------3------------|
|--4------------------|--5-------------4------------|
|--5------------------|-----------------------------|
|---------------------|-----------------------------|
|---------------------|-----------------------------|
|
| Gtr II
|  H         Q   E  E    E  E  +E   E  E  E  +E   E
|---------------------|-----------------------------|
|---------------------|------------------20-(20)-20-|
|---------------------|----17-(17)------------------|
|------------------17-|-19---------19-19------------|
|---------------------|-----------------------------|
|---------------------|-----------------------------|
|
| Gtr III
| +E  E E E +Q.     E    W
|-(4)-3-1-3-(3)-------|-----------------------------|
|---------------------|-----------------------------|
|---------------------|-----------------------------|
|---------------------|-----------------------------|
|---------------------|-----------------------------|
|---------------------|-----------------------------|


    W                          W
|---0----------------------|----------------------|
|---3----------------------|---3------------------|
|---2----------------------|---4------------------|
|--------------------------|---5------------------|
|--------------------------|----------------------|
|--------------------------|----------------------|
|
|  +E   E  +Q    Q   E.  S    +H      +S  S E Q
|--------------------------|----------------------|
|-(20)---------------------|----------------------|
|--------------------------|----------------------|
|------22-(22)-------------|----------------------|
|---------------24--22--24-|-(24)----(24)---------|
|--------------------------|----------------------|
|
|   W                          W
|--------------------------|----------------------|
|--------------------------|----------------------|
|--------------------------|----------------------|
|--------------------------|----------------------|
|--------------------------|----------------------|
|--------------------------|----------------------|


  W                                  W
|-1------------------------------|---1------------------|
|-1------------------------------|---3------------------|
|-2------------------------------|---2------------------|
|--------------------------------|----------------------|
|--------------------------------|----------------------|
|--------------------------------|----------------------|
|
| S  E.  +Q    +E.  S  +S   E  S    +H      +E  E  E  E
|--------------------------------|----------------------|
|--------------------------------|----------------------|
|---21--(21)--(21)---------------|----------------21-22-|
|------------------22-(22)-24----|----------------------|
|-----------------------------24-|-(24)----(24)---------|
|--------------------------------|----------------------|


   W                  +H     H
|--3----------------|-(3)----3-------|
|--5----------------|-(5)----5-------|
|--5----------------|-(5)----6-------|
|-------------------|----------------|
|-------------------|----------------|
|-------------------|----------------|
|
|  H     +E   E  Q     H.        Q
|-------------------|----------------|
|-20----(20)-18-17--|-15--------17---|
|-------------------|----------------|
|-------------------|----------------|
|-------------------|----------------|
|-------------------|----------------|


   W           H     Q   Q     W                 +H     H
|--5--------|--------5---3--|--5--------------|--(5)---------|
|--6--------|--5-----6---3--|--5--------------|--(5)----3----|
|--7--------|--4-----5---4--|--7--------------|--(7)----4----|
|-----------|--5------------|-----------------|---------5----|
|-----------|---------------|-----------------|--------------|
|-----------|---------------|-----------------|--------------|
|
|  W           H     Q   Q     H     Q   E  E    +H     H
|-----------|---------------|-----------------|--------------|
|-----------|---------------|-----------------|--------------|
|-----------|---------------|-----------------|--------------|
|-19--------|-17----19--21--|-21----22--21-19-|-(19)---------|
|-----------|---------------|-----------------|--------------|
|-----------|---------------|-----------------|--------------|


   W                      W                 W                       W
|--1------------------|---1--------------|--0--------------------|-------------|
|--1------------------|---3--------------|--1--------------------|--3----------|
|--2------------------|---2--------------|--0--------------------|--4----------|
|---------------------|------------------|-----------------------|--5----------|
|---------------------|------------------|-----------------------|-------------|
|---------------------|------------------|-----------------------|-------------|
|
|  H     +E   E  E  E    +H     E  E  Q     H     +E   E  +E   E    H     H
|---------------------|-----------12-13--|-15----(15)-13-(13)-12-|-10----12----|
|-17----(17)----15----|------------------|-----------------------|-------------|
|------------17----14-|-(14)-------------|-----------------------|-------------|
|---------------------|------------------|-----------------------|-------------|
|---------------------|------------------|-----------------------|-------------|
|---------------------|------------------|-----------------------|-------------|


   W                   W               +W              W
|--1-----------------|---------------|---------------|-5----------------|
|--1-----------------|-3-------------|-(3)-----------|-6----------------|
|--2-----------------|-4-------------|-(4)-----------|-5----------------|
|--------------------|-5-------------|-(5)-----------|------------------|
|--------------------|---------------|---------------|------------------|
|--------------------|---------------|---------------|------------------|
|
|  H     +E  E +E  E   H    +E  E Q     H     Q  E E   E E E S S Q  Q
|--------------------|---------------|-------------3-|-5-8---8---8--8---|
|-10----(10)-8-(8)-6-|-5----(5)------|---------------|------------------|
|--------------------|---------------|---------------|------------------|
|--------------------|---------------|---------------|------------------|
|--------------------|---------------|---------------|------------------|
|--------------------|---------------|---------------|------------------|


  W                W                 +H     H      H    H
|--------------|---0---------------|-(0)---------|-1----3----|
|-3------------|---1---------------|-(1)----3----|-1----5----|
|-4------------|---2---------------|-(2)----4----|-2----5----|
|-5------------|-------------------|--------5----|-----------|
|--------------|-------------------|-------------|-----------|
|--------------|-------------------|-------------|-----------|
|
| H.      E  E    +H      +E  E Q     W            W
|-7-------8----|-------------------|-------------|-----------|
|-----------10-|-(10)----(10)------|-------------|-----------|
|--------------|-------------------|-------------|-----------|
|--------------|-------------------|-------------|-----------|
|--------------|-------------------|-------------|-----------|
|--------------|-------------------|-------------|-----------|


  H    H      +W
|-1----0----|-(0)----*|
|-3----2----|-(2)----*|
|-2----2----|-(2)----*|
|-----------|--------*|
|-----------|--------*|
|-----------|--------*|


Duration Legend
---------------
W - whole; H - half; Q - quarter; E - 8th; S - 16th; T - 32nd; X - 64th; a - acciaccatura
+ - note tied to previous; . - note dotted; .. - note double dotted
Uncapitalized letters represent notes that are staccato (1/2 duration)
Irregular groupings are notated above the duration line
Duration letters will always appear directly above the note/fret number it represents the
duration for.  Duration letters with no fret number below them represent rests.  Multi-
bar rests are notated in the form Wxn, where n is the number of bars to rest for.  Low
melody durations appear below the staff

Tablature Legend
----------------
 h   - hammer-on
 p   - pull-off
 b   - bend
 pb  - pre-bend
 r   - bend release (if no number after the r, then release immediately)
 /\  - slide into or out of (from/to "nowhere")
 s   - legato slide
 S   - shift slide
<n>  - natural harmonic
[n]  - artificial harmonic
n(n) - tapped harmonic
 ~   - vibrato
 tr  - trill
 T   - tap
 TP  - trem. picking
 PM  - palm muting
\n/  - tremolo bar dip; n = amount to dip
 \n  - tremolo bar down
 n/  - tremolo bar up
/n\  - tremolo bar inverted dip
 =   - hold bend; also acts as connecting device for hammers/pulls
 <>  - volume swell (louder/softer)
 x   - on rhythm slash represents muted slash
 o   - on rhythm slash represents single note slash

Misc Legend
-----------
 |  - bar
||  - double bar
||o - repeat start
o|| - repeat end
*|  - double bar (ending)
 :  - bar (freetime)
 $  - Segno
 &  - Coda
Tempo markers - <E/E./Q/Q./H/H.> = BPM(8/16=s8/s16), where s8 = swing 8ths, s16 = swing 16ths
comments
We did not receive enough feedback on this tab! Please rate:
print report bad tab
1 2 3 4 5
I want to post or [tab]
guest
You may want to rate the tab now too:
select rating
Please do not post tabs as comments. Select "correction" instead!