Oops, an error
Loading. Please wait.

A Shot In The Dark Tab

ver2
ver2

Whole song

Interactive

More versions @911Tabs.com
87,268 views 66 this week
9 commentsread comments
1 2 3 4 5
excellent!
x 12
Autoscroll
+/-
esc
set tempo
stop
Contributor
Difficulty
Tuning
intermediate
C G C F A D
Hey! There's an official Ultimate Guitar app which is ideal
for learning songs when you're away from computer. Get the app
WARNING: You are trying to view
                                    content from Ultimate-Guitar.com
                                    in an unauthorized application,
                                    which is prohibited.

                                    Please use an official Ultimate
                                    Guitar Tabs application for iPhone,
                                    iPad or Android to access legitimate
                                    chords, guitar, bass, and drum tabs
                                    from Ultimate-Guitar.com database.

                                    Type "ultimate guitar tabs" in Apple
                                    App Store's or Android Market's
                                    search to find the application.
#----------------------------------PLEASE NOTE---------------------------------#
#This file is the author's own work and represents their interpretation of the #
#song. You may only use this file for private study, scholarship, or research. #
#------------------------------------------------------------------------------#

A SHOT IN THE DARK
As recorded by A Day To Remember
(From the 2007 Album FOR THOSE WHO HAVE HEART)

Transcribed by jonathanonfire (Jonathan Rose)
        

Words and Music by A Day To Remember
Arranged by A Day To Remember

Gtr I (C G C F A D) - 'Gtr I (Left Channel)'
Gtr II (C G C F A D) - 'Gtr II (Right Channel)'

 Intro
  Pop-Mosh Q=198
  N.C.
 1/8 4/4
  Gtrs I, II
          PM  PM
  E   +E  E E E Q.   E   +E   E E E E Q  E
|---|------------------|-------------------|
|---|------------------|-------------------|
|---|------------------|-------------------|
|---|------------------|--------x-x--------|
|---|-------7---8------|-----10-x-x--------|
|-0-|-(0)-0---0------8-|-(8)----x-x-3-2--0-|


      PM  PM
  +E  E E E Q.   E   +E  E E E E E E E
|------------------|--------------------|
|------------------|--------------------|
|------------------|--------------------|
|------------------|---------------7----|
|-------7---8------|---------5-7-8------|
|-(0)-0---0------8-|-(8)-5-8---------0--|


      PM  PM                                 PM  PM
  +E  E E E Q.   E   +E   E E E E Q  E   +E  E E E Q.   E   +E  H.      E
|------------------|-------------------|------------------|---------------|
|------------------|-------------------|------------------|---------------|
|------------------|-------------------|------------------|---------------|
|------------------|--------x-x--------|------------------|---------------|
|-------7---8------|-----10-x-x--------|-------7---8------|---------------|
|-(0)-0---0------8-|-(8)----x-x-3-2--0-|-(0)-0---0------8-|-(8)---------0-|


        PM  PM
    +E  E E E Q.   E   +E   E E E E Q  E
||-------------------|-------------------|
||o------------------|-------------------|
||-------------------|-------------------|
||-------------------|--------x-x--------|
||o-------7---8------|-----10-x-x--------|
||--(0)-0---0------8-|-(8)----x-x-3-2--0-|


      PM  PM
  +E  E E E Q.   E   +E  E E E E E E E
|------------------|---------------------||
|------------------|--------------------o||
|------------------|---------------------||
|------------------|---------------7-----||
|-------7---8------|---------5-7-8------o||
|-(0)-0---0------8-|-(8)-5-8---------0---||


  Gtr I
      PM   PM
  +E  E  E E  Q.   E   +E   E E E E Q  E
|--------------------|-------------------|
|--------------------|-------------------|
|--------------------|-------------------|
|--------------------|--------x-x--------|
|-------10---12------|-----10-x-x--------|
|-(0)-0----0-------8-|-(8)----x-x-3-2--0-|
|
| Gtr II
|     PM   PM
| +E  E  E E  Q.   E   +E   E E E E Q  E
|--------------------|-------------------|
|--------------------|-------------------|
|--------------------|-------------------|
|--------------------|--------x-x--------|
|--------7----8------|-----10-x-x--------|
|-(0)-0----0-------8-|-(8)----x-x-3-2--0-|


      PM   PM
  +E  E  E E  Q.   E   +E  E E E E E E E
|--------------------|-------------------|
|--------------------|-------------------|
|--------------------|-------------------|
|--------------------|---------------7---|
|-------10---12------|---------5-7-8-----|
|-(0)-0----0-------8-|-(8)-5-8---------0-|
|
|     PM   PM
| +E  E  E E  Q.   E   +E  E E E E E E E
|--------------------|-------------------|
|--------------------|-------------------|
|--------------------|-------------------|
|--------------------|---------------7---|
|--------7----8------|---------5-7-8-----|
|-(0)-0----0-------8-|-(8)-5-8---------0-|


      PM   PM
  +E  E  E E  Q.   E   +E   E E E E Q  E
|--------------------|-------------------|
|--------------------|-------------------|
|--------------------|-------------------|
|--------------------|--------x-x--------|
|-------10---12------|-----10-x-x--------|
|-(0)-0----0-------8-|-(8)----x-x-3-2--0-|
|
|     PM   PM
| +E  E  E E  Q.   E   +E   E E E E Q  E
|--------------------|-------------------|
|--------------------|-------------------|
|--------------------|-------------------|
|--------------------|--------x-x--------|
|--------7----8------|-----10-x-x--------|
|-(0)-0----0-------8-|-(8)----x-x-3-2--0-|


                                       D5
      PM   PM
  +E  E  E E  Q.   E   +E  E E E E E E E
|--------------------|-------------------|
|--------------------|-------------------|
|--------------------|-------------------|
|--------------------|---------------7-0-|
|-------10---12------|---------5-7-8---0-|
|-(0)-0----0-------8-|-(8)-5-8---------0-|
|
|     PM   PM
| +E  E  E E  Q.   E   +E  E E E E E E E
|--------------------|-------------------|
|--------------------|-------------------|
|--------------------|-------------------|
|--------------------|---------------7-0-|
|--------7----8------|---------5-7-8---0-|
|-(0)-0----0-------8-|-(8)-5-8---------0-|


                                                Eb5   D5
  Gtrs I, II
                                                PM--|
  +W           +W           +W           +H     E E E E
|------------|------------|------------|----------------|
|------------|------------|------------|----------------|
|------------|------------|------------|----------------|
|-(0)--------|-(0)--------|-(0)--------|-(0)----------0-|
|-(0)--------|-(0)--------|-(0)--------|-(0)----1-1-1-0-|
|-(0)--------|-(0)--------|-(0)--------|-(0)----1-1-1-0-|


                           \6
  +W           +H..       +E    +W           +H..       E
|------------|----------------|------------|--------------||
|------------|----------------|------------|--------------||
|------------|----------------|------------|--------------||
|-(0)--------|-(0)--------(0)-|-(0)--------|-(0)--------0-||
|-(0)--------|-(0)--------(0)-|-(0)--------|-(0)--------0-||
|-(0)--------|-(0)--------(0)-|-(0)--------|-(0)--------0-||


   "Let's take them back.."
    D5                                   N.C.
    Gtr I
         PM----------------------------|
    +Q   S S E S S E S S E   S S E S S E E E E E
||-------------------------|---------------------|
||o------------------------|---------------------|
||-------------------------|---------------------|
||--(0)--------------------|---------------------|
||o-(0)--0-0-0-0-0-0-0-0-0-|-0-0-0-0-0-0-7-8---8-|
||--(0)--0-0-0-0-0-0-0-0-0-|-0-0-0-0-0-0---------|
|
|   Gtr II
|        PM----------------------------|
|   +Q   S S E S S E S S E   S S E S S E E E E E
||-------------------------|---------------------|
||o------------------------|---------------------|
||-------------------------|---------------------|
||--(0)--------------------|---------------------|
||o-(0)--0-0-0-0-0-0-0-0-0-|-0-0-0-0-0-0-7-8---8-|
||--(0)--0-0-0-0-0-0-0-0-0-|-0-0-0-0-0-0---------|


        D5                  F5       A5      D5
        PM--------------|
  +Q    S S E S S E S S E   E E  E E  E  E E E
|-------------------------|---------------------||
|-------------------------|----------10--------o||
|-------------------------|-----10-9----10------||
|-------------------------|-8-8------------7-0--||
|-(8)\--0-0-0-0-0-0-0-0-0-|------------------0-o||
|-------0-0-0-0-0-0-0-0-0-|------------------0--||
|
|       PM--------------------|       PM---|
| +Q    S S E S S E S S E   E E  Q    E  E E E
|-------------------------|---------------------||
|-------------------------|--------------------o||
|-------------------------|---------------------||
|-------------------------|------3-----------0--||
|-(8)\--0-0-0-0-0-0-0-0-0-|-3-3--3----7--7-7-0-o||
|-------0-0-0-0-0-0-0-0-0-|-3-3--3----7--7-7-0--||


                             N.C.            D5            F5      A5    D5
  Gtrs I, II
       PM------------------|                 PM------------------------|
  +Q   E E E E E E   E E E E E E E E   +Q    E E E E E E   E E E E E E E E
|------------------|-----------------|-------------------|-----------------|
|------------------|-----------------|-------------------|-----------------|
|------------------|-----------------|-------------------|-----------------|
|-(0)--------------|-----------------|-------------------|---------------0-|
|-(0)--0-0-0-0-0-0-|-0-0-0-0-7-8---8-|-(8)\--0-0-0-0-0-0-|-3-3-3-3-7-7-7-0-|
|-(0)--0-0-0-0-0-0-|-0-0-0-0---------|-------0-0-0-0-0-0-|-3-3-3-3-7-7-7-0-|


                             N.C.            D5
       PM------------------|                 PM--------|
  +Q   E E E E E E   E E E E E E E E   +Q    E E E E E E
|------------------|-----------------|-------------------|
|------------------|-----------------|-------------------|
|------------------|-----------------|-------------------|
|-(0)--------------|-----------------|-------------------|
|-(0)--0-0-0-0-0-0-|-0-0-0-0-7-8---8-|-(8)\--0-0-0-0-0-0-|
|-(0)--0-0-0-0-0-0-|-0-0-0-0---------|-------0-0-0-0-0-0-|


  F5            A5
  E E H.        E E H.
|-------------|-----------||
|-------------|-----------||
|-------------|-----------||
|-3-3---------|-7-7-------||
|-3-3---------|-7-7-------||
|-3-3---------|-7-7-------||


 "We gave all of.."
  Bbsus2
  Gtr I
   Q   Q   Q     Q       +Q      Q   H
|---------------------|-------------------------|
|---------------13----|-(13)--------------------|
|-----10--12----------|---------12--10----------|
|-10------------------|-------------------------|
|---------------------|-------------------------|
|---------------------|-------------------------|
|
| Gtr II
|  H       E  E  E  E    +E   E  Q   E  E  E  E
|---------------------|-------------------------|
|---------------------|-------------------------|
|---------------------|-------------------------|
|-10------10-10-10-10-|-(10)-10-10--10-10-10-10-|
|--8-------8--8--8--8-|--(8)--8--8---8--8--8--8-|
|--8-------8--8--8--8-|--(8)--8--8---8--8--8--8-|


  D5              F5                    G5
   Q   Q   Q    Q      +Q     Q   H
|-------------------|-------------------------|
|--------------13---|-(13)--------------------|
|-----10--12--------|--------12--10-----------|
|-10----------------|-------------------------|
|-------------------|-------------------------|
|-------------------|-------------------------|
|
|  H       E E  E E    +E  E  Q   E  a  E E E
|-------------------|-------------------------|
|-------------------|-------------------------|
|-------------------|-------------------------|
|--0-------0-0--0-3-|--(3)-3--3---3-(3)s5-5-5-|
|--0-------0-0--0-3-|--(3)-3--3---3-(3)s5-5-5-|
|--0-------0-0--0-3-|--(3)-3--3---3-(3)s5-5-5-|


  Bbsus2
   Q   Q   Q     Q       +Q      Q   H
|---------------------|-------------------------|
|---------------13----|-(13)--------------------|
|-----10--12----------|---------12--10----------|
|-10------------------|-------------------------|
|---------------------|-------------------------|
|---------------------|-------------------------|
|
|  H       E  E  E  E    +E   E  Q   E  E  E  E
|---------------------|-------------------------|
|---------------------|-------------------------|
|---------------------|-------------------------|
|-10------10-10-10-10-|-(10)-10-10--10-10-10-10-|
|--8-------8--8--8--8-|--(8)--8--8---8--8--8--8-|
|--8-------8--8--8--8-|--(8)--8--8---8--8--8--8-|


  D5                       C5
   Q   Q   Q    Q      +Q      Q     H
|-------------------|---------------------------|
|--------------13---|-(13)----------------------|
|-----10--12--------|---------12----10----------|
|-10----------------|---------------------------|
|-------------------|---------------------------|
|-------------------|---------------------------|
|
|  H       E E  E E    +E   E  E  E  E  E  E  E
|-------------------|---------------------------|
|-------------------|---------------------------|
|-------------------|---------------------------|
|--0-------0-0--0-0-|--(0)-10-10-10-10-10-10-10-|
|--0-------0-0--0-0-|--(0)-10-10-10-10-10-10-10-|
|--0-------0-0--0-0-|--(0)-10-10-10-10-10-10-10-|


  Bbsus2
   Q   Q   Q     Q       +Q      Q   H
|---------------------|-------------------------|
|---------------13----|-(13)--------------------|
|-----10--12----------|---------12--10----------|
|-10------------------|-------------------------|
|---------------------|-------------------------|
|---------------------|-------------------------|
|
|  H       E  E  E  E    +E   E  Q   E  E  E  E
|---------------------|-------------------------|
|---------------------|-------------------------|
|---------------------|-------------------------|
|-10------10-10-10-10-|-(10)-10-10--10-10-10-10-|
|--8-------8--8--8--8-|--(8)--8--8---8--8--8--8-|
|--8-------8--8--8--8-|--(8)--8--8---8--8--8--8-|


  D5              F5                    G5
   Q   Q   Q    Q      +Q     Q   H
|-------------------|-------------------------|
|--------------13---|-(13)--------------------|
|-----10--12--------|--------12--10-----------|
|-10----------------|-------------------------|
|-------------------|-------------------------|
|-------------------|-------------------------|
|
|  H       E E  E E    +E  E  Q   E  a  E E E
|-------------------|-------------------------|
|-------------------|-------------------------|
|-------------------|-------------------------|
|--0-------0-0--0-3-|--(3)-3--3---3-(3)s5-5-5-|
|--0-------0-0--0-3-|--(3)-3--3---3-(3)s5-5-5-|
|--0-------0-0--0-3-|--(3)-3--3---3-(3)s5-5-5-|


  Bbsus2
   Q   Q   Q     Q       +Q      Q   H
|---------------------|-------------------------|
|---------------13----|-(13)--------------------|
|-----10--12----------|---------12--10----------|
|-10------------------|-------------------------|
|---------------------|-------------------------|
|---------------------|-------------------------|
|
|  H       E  E  E  E    +E   E  Q   E  E  E  E
|---------------------|-------------------------|
|---------------------|-------------------------|
|---------------------|-------------------------|
|-10------10-10-10-10-|-(10)-10-10--10-10-10-10-|
|--8-------8--8--8--8-|--(8)--8--8---8--8--8--8-|
|--8-------8--8--8--8-|--(8)--8--8---8--8--8--8-|


  D5                       C5                 N.C.
   Q   Q   Q    Q      +Q      Q     Q.       E
|-------------------|---------------------------||
|--------------13---|-(13)----------------------||
|-----10--12--------|---------12----10----------||
|-10----------------|---------------------------||
|-------------------|---------------------------||
|-------------------|-------------------------0-||
|
|  H       E E  E E    +E   E  E  E  E   E  E E
|-------------------|---------------------------||
|-------------------|---------------------------||
|-------------------|---------------------------||
|--0-------0-0--0-0-|--(0)-10-10-10-10--10-10---||
|--0-------0-0--0-0-|--(0)-10-10-10-10--10-10---||
|--0-------0-0--0-0-|--(0)-10-10-10-10--10-10-0-||


 Interlude
  N.C.
  Gtrs I, II
      PM  PM                                 PM  PM
  +E  E E E Q.   E   +E   E E E E Q  E   +E  E E E Q.   E   +E  E E E E E E E
|------------------|-------------------|------------------|-------------------|
|------------------|-------------------|------------------|-------------------|
|------------------|-------------------|------------------|-------------------|
|------------------|--------x-x--------|------------------|---------------7---|
|-------7---8------|-----10-x-x--------|-------7---8------|---------5-7-8-----|
|-(0)-0---0------8-|-(8)----x-x-3-2--0-|-(0)-0---0------8-|-(8)-5-8---------0-|


      PM  PM
  +E  E E E Q.   E   +E   E E E E Q  E
|------------------|-------------------|
|------------------|-------------------|
|------------------|-------------------|
|------------------|--------x-x--------|
|-------7---8------|-----10-x-x--------|
|-(0)-0---0------8-|-(8)----x-x-3-2--0-|


                                           D5
      PM  PM
  +E  E E E Q.    E        +H     +Q   +E  E
|------------------------|-------------------||
|------------------------|-------------------||
|------------------------|-------------------||
|------------------------|-----------------0-||
|-------7---8----[8]b10==|=(8)----(8)r=(8)-0-||
|-(0)-0---0--------------|-----------------0-||


   "I'm the god amongst.."
    D5                                   N.C.
    Gtr I
         PM----------------------------|
    +Q   S S E S S E S S E   S S E S S E E E E E
||-------------------------|---------------------|
||o------------------------|---------------------|
||-------------------------|---------------------|
||--(0)--------------------|---------------------|
||o-(0)--0-0-0-0-0-0-0-0-0-|-0-0-0-0-0-0-7-8---8-|
||--(0)--0-0-0-0-0-0-0-0-0-|-0-0-0-0-0-0---------|
|
|   Gtr II
|        PM----------------------------|
|   +Q   S S E S S E S S E   S S E S S E E E E E
||-------------------------|---------------------|
||o------------------------|---------------------|
||-------------------------|---------------------|
||--(0)--------------------|---------------------|
||o-(0)--0-0-0-0-0-0-0-0-0-|-0-0-0-0-0-0-7-8---8-|
||--(0)--0-0-0-0-0-0-0-0-0-|-0-0-0-0-0-0---------|


                            F5       A5      D5
        PM--------------|
  +Q    S S E S S E S S E   E E  E E  E  E E E
|-------------------------|---------------------||
|-------------------------|----------10--------o||
|-------------------------|-----10-9----10------||
|-------------------------|-8-8------------7-0--||
|-(8)\--0-0-0-0-0-0-0-0-0-|------------------0-o||
|-------0-0-0-0-0-0-0-0-0-|------------------0--||
|
|       PM--------------------|       PM---|
| +Q    S S E S S E S S E   E E  Q    E  E E E
|-------------------------|---------------------||
|-------------------------|--------------------o||
|-------------------------|---------------------||
|-------------------------|------3-----------0--||
|-(8)\--0-0-0-0-0-0-0-0-0-|-3-3--3----7--7-7-0-o||
|-------0-0-0-0-0-0-0-0-0-|-3-3--3----7--7-7-0--||


                             N.C.            D5            F5      A5    D5
  Gtrs I, II
       PM------------------|                 PM------------------------|
  +Q   E E E E E E   E E E E E E E E   +Q    E E E E E E   E E E E E E E E
|------------------|-----------------|-------------------|-----------------|
|------------------|-----------------|-------------------|-----------------|
|------------------|-----------------|-------------------|-----------------|
|-(0)--------------|-----------------|-------------------|---------------0-|
|-(0)--0-0-0-0-0-0-|-0-0-0-0-7-8---8-|-(8)\--0-0-0-0-0-0-|-3-3-3-3-7-7-7-0-|
|-(0)--0-0-0-0-0-0-|-0-0-0-0---------|-------0-0-0-0-0-0-|-3-3-3-3-7-7-7-0-|


                             N.C.            D5            F5      A5
       PM------------------|                 PM--------------------------|
  +Q   E E E E E E   E E E E E E E E   +Q    E E E E E E   E E E E E E E E
|------------------|-----------------|-------------------|-----------------||
|------------------|-----------------|-------------------|-----------------||
|------------------|-----------------|-------------------|-----------------||
|-(0)--------------|-----------------|-------------------|-----------------||
|-(0)--0-0-0-0-0-0-|-0-0-0-0-7-8---8-|-(8)\--0-0-0-0-0-0-|-3-3-3-3-7-7-7-7-||
|-(0)--0-0-0-0-0-0-|-0-0-0-0---------|-------0-0-0-0-0-0-|-3-3-3-3-7-7-7-7-||


 Bridge
  Slower Q=136
  D5
  W          +W           +W           +H.       Q  a
|----------|------------|------------|----------------||
|----------|------------|------------|----------------||
|----------|------------|------------|----------------||
|-0--------|-(0)--------|-(0)--------|-(0)------------||
|-0--------|-(0)--------|-(0)--------|-(0)------12s=0-||
|-0--------|-(0)--------|-(0)--------|-(0)------12s=0-||


   Breakdown
    D5
    PM--------------|       PM----------|
    E E E E S S S S E E   E S S S S S S E Q.
||----------------------|----------------------|
||o---------------------|----------------------|
||----------------------|----------------------|
||----------------------|----------------------|
||o-0---0---0-0-0-0-0---|---0-0-0-0-0-0-0------|
||--0---0---0-0-0-0-0---|---0-0-0-0-0-0-0------|


  PM--------------|       PM----------|
  E E E E S S S S E E   E S S S S S S E Q.
|---------------------|------------------------||
|---------------------|-----------------------o||
|---------------------|------------------------||
|---------------------|------------------------||
|-0---0---0-0-0-0-0---|---0-0-0-0-0-0-0-------o||
|-0---0---0-0-0-0-0---|---0-0-0-0-0-0-0--------||


  PM---------------------------------------
  Q  Q  S S S S Q    +E  S S S S S S H
|------------------|----------------------|
|------------------|----------------------|
|------------------|----------------------|
|------------------|----------------------|
|-0--0--0-0-0-0-0--|-(0)-0-0-0-0-0-0-0----|
|-0--0--0-0-0-0-0--|-(0)-0-0-0-0-0-0-0----|


 ------------------------------------|
  Q  Q  S S S S Q    +E  S S S S S S H
|------------------|----------------------|
|------------------|----------------------|
|------------------|----------------------|
|------------------|----------------------|
|-0--0--0-0-0-0-0--|-(0)-0-0-0-0-0-0-0----|
|-0--0--0-0-0-0-0--|-(0)-0-0-0-0-0-0-0----|


  PM---------------------------------------
  Q  Q  S S S S Q    +E  S S S S S S H
|------------------|----------------------|
|------------------|----------------------|
|------------------|----------------------|
|------------------|----------------------|
|-0--0--0-0-0-0-0--|-(0)-0-0-0-0-0-0-0----|
|-0--0--0-0-0-0-0--|-(0)-0-0-0-0-0-0-0----|


                                     N.C.
 ----------------------------------|
  Q  Q  S S S S Q    +E  S S S S S S E E Q
|------------------|--------------------------||
|------------------|--------------------------||
|------------------|--------------------------||
|------------------|--------------------------||
|-0--0--0-0-0-0-0--|-(0)-0-0-0-0-0-0-8-5-7----||
|-0--0--0-0-0-0-0--|-(0)-0-0-0-0-0-0----------||


   "We gave all of.."
    Original Tempo Q=198
    Bbsus2
    Gtr I
     Q   Q   Q     Q       +Q      Q   H
||----------------------|-------------------------|
||o---------------13----|-(13)--------------------|
||------10--12----------|---------12--10----------|
||--10------------------|-------------------------|
||o---------------------|-------------------------|
||----------------------|-------------------------|
|
|   Gtr II
|    H       E  E  E  E    +E   E  Q   E  E  E  E
||----------------------|-------------------------|
||o---------------------|-------------------------|
||----------------------|-------------------------|
||--10------10-10-10-10-|-(10)-10-10--10-10-10-10-|
||o--8-------8--8--8--8-|--(8)--8--8---8--8--8--8-|
||---8-------8--8--8--8-|--(8)--8--8---8--8--8--8-|


  D5              F5                    G5
   Q   Q   Q    Q      +Q     Q   H
|-------------------|-------------------------|
|--------------13---|-(13)--------------------|
|-----10--12--------|--------12--10-----------|
|-10----------------|-------------------------|
|-------------------|-------------------------|
|-------------------|-------------------------|
|
|  H       E E  E E    +E  E  Q   E  a  E E E
|-------------------|-------------------------|
|-------------------|-------------------------|
|-------------------|-------------------------|
|--0-------0-0--0-3-|--(3)-3--3---3-(3)s5-5-5-|
|--0-------0-0--0-3-|--(3)-3--3---3-(3)s5-5-5-|
|--0-------0-0--0-3-|--(3)-3--3---3-(3)s5-5-5-|


  Bbsus2
   Q   Q   Q     Q       +Q      Q   H
|---------------------|-------------------------|
|---------------13----|-(13)--------------------|
|-----10--12----------|---------12--10----------|
|-10------------------|-------------------------|
|---------------------|-------------------------|
|---------------------|-------------------------|
|
|  H       E  E  E  E    +E   E  Q   E  E  E  E
|---------------------|-------------------------|
|---------------------|-------------------------|
|---------------------|-------------------------|
|-10------10-10-10-10-|-(10)-10-10--10-10-10-10-|
|--8-------8--8--8--8-|--(8)--8--8---8--8--8--8-|
|--8-------8--8--8--8-|--(8)--8--8---8--8--8--8-|


  D5                       C5
   Q   Q   Q    Q      +Q      Q     H           4x
|-------------------|----------------------------||
|--------------13---|-(13)----------------------o||
|-----10--12--------|---------12----10-----------||
|-10----------------|----------------------------||
|-------------------|---------------------------o||
|-------------------|----------------------------||
|
|  H       E E  E E    +E   E  E  E  E  E  E  E  4x
|-------------------|----------------------------||
|-------------------|---------------------------o||
|-------------------|----------------------------||
|--0-------0-0--0-0-|--(0)-10-10-10-10-10-10-10--||
|--0-------0-0--0-0-|--(0)-10-10-10-10-10-10-10-o||
|--0-------0-0--0-0-|--(0)-10-10-10-10-10-10-10--||


 "Mark my words.."
  Slower Q=136
  D5
  Gtrs I, II
  W          +W           +W           +H      H    a
|----------|------------|------------|----------------|
|----------|------------|------------|----------------|
|----------|------------|------------|----------------|
|-0--------|-(0)--------|-(0)--------|-(0)------------|
|-0--------|-(0)--------|-(0)--------|-(0)----12s===0-|
|-0--------|-(0)--------|-(0)--------|-(0)----12s===0-|


                                              PM
  W          +W           +W           +H     E Q.
|----------|------------|------------|---------------||
|----------|------------|------------|---------------||
|----------|------------|------------|---------------||
|-0--------|-(0)--------|-(0)--------|-(0)-----------||
|-0--------|-(0)--------|-(0)--------|-(0)----0------||
|-0--------|-(0)--------|-(0)--------|-(0)----0------||


 Breakdown
  D5
  PM--------------|          PM----------|
  S S S S S S S S E Q.     E S S S S S S E Q.
|------------------------|----------------------|
|------------------------|----------------------|
|------------------------|----------------------|
|------------------------|----------------------|
|-0-0-0-0-0-0-0-0-0------|---0-0-0-0-0-0-0------|
|-0-0-0-0-0-0-0-0-0------|---0-0-0-0-0-0-0------|


  PM--------------|          PM----------|
  S S S S S S S S E Q.     E S S S S S S E Q.
|------------------------|-----------------------|
|------------------------|-----------------------|
|------------------------|-----------------------|
|------------------------|-----------------------|
|-0-0-0-0-0-0-0-0-0------|---0-0-0-0-0-0-0-------|
|-0-0-0-0-0-0-0-0-0------|---0-0-0-0-0-0-0-------|


  PM--------------|          PM----------|
  S S S S S S S S E Q.     E S S S S S S E Q.
|------------------------|----------------------|
|------------------------|----------------------|
|------------------------|----------------------|
|------------------------|----------------------|
|-0-0-0-0-0-0-0-0-0------|---0-0-0-0-0-0-0------|
|-0-0-0-0-0-0-0-0-0------|---0-0-0-0-0-0-0------|


                                         Eb5
  PM--------------|          PM----------|
  S S S S S S S S E Q.     E S S S S S S H
|------------------------|--------------------|
|------------------------|--------------------|
|------------------------|--------------------|
|------------------------|--------------------|
|-0-0-0-0-0-0-0-0-0------|---0-0-0-0-0-0-1----|
|-0-0-0-0-0-0-0-0-0------|---0-0-0-0-0-0-1----|


 2/4      4/4
   >
   PM
  +H       W
|--------|------||
|--------|------||
|--------|------||
|--------|------||
|-(1)----|------||
|-(1)----|------||


 Breakdown Outro
  D5
  PM---------------------------------------
  S S S S S S S S H      +E  S E S E H
|----------------------|------------------|
|----------------------|------------------|
|----------------------|------------------|
|----------------------|------------------|
|-0-0-0-0-0-0-0-0-0----|-(0)-0-0-0-0-0----|
|-0-0-0-0-0-0-0-0-0----|-(0)-0-0-0-0-0----|


 ----------------------------------------|
  S S S S S S S S H      +E  S S S S S S H
|----------------------|----------------------|
|----------------------|----------------------|
|----------------------|----------------------|
|----------------------|----------------------|
|-0-0-0-0-0-0-0-0-0----|-(0)-0-0-0-0-0-0-0----|
|-0-0-0-0-0-0-0-0-0----|-(0)-0-0-0-0-0-0-0----|


  PM---------------------------------------
  S S S S S S S S H      +E  S E S E H
|----------------------|------------------|
|----------------------|------------------|
|----------------------|------------------|
|----------------------|------------------|
|-0-0-0-0-0-0-0-0-0----|-(0)-0-0-0-0-0----|
|-0-0-0-0-0-0-0-0-0----|-(0)-0-0-0-0-0----|


 ------------------------------------|
  S S S S S S S S H      +E  S E S E E Q.
|----------------------|---------------------|
|----------------------|---------------------|
|----------------------|---------------------|
|----------------------|---------------------|
|-0-0-0-0-0-0-0-0-0----|-(0)-0-0-0-0-0-------|
|-0-0-0-0-0-0-0-0-0----|-(0)-0-0-0-0-0-------|


  N.C.
 2/4    4/4
  W      W
|------|------*|
|------|------*|
|------|------*|
|------|------*|
|------|------*|
|------|------*|



Duration Legend
---------------
W - whole; H - half; Q - quarter; E - 8th; S - 16th; T - 32nd; X - 64th; a - acciaccatura
+ - note tied to previous; . - note dotted; .. - note double dotted
Uncapitalized letters represent notes that are staccato (1/2 duration)
Irregular groupings are notated above the duration line
Duration letters will always appear directly above the note/fret number it represents the
duration for.  Duration letters with no fret number below them represent rests.  Multi-
bar rests are notated in the form Wxn, where n is the number of bars to rest for.  Low
melody durations appear below the staff

Tablature Legend
----------------
 h   - hammer-on
 p   - pull-off
 b   - bend
 pb  - pre-bend
 r   - bend release (if no number after the r, then release immediately)
 /\  - slide into or out of (from/to "nowhere")
 s   - legato slide
 S   - shift slide
 - natural harmonic
[n]  - artificial harmonic
n(n) - tapped harmonic
 ~   - vibrato
 tr  - trill
 T   - tap
 TP  - trem. picking
 PM  - palm muting
\n/  - tremolo bar dip; n = amount to dip
 \n  - tremolo bar down
 n/  - tremolo bar up
/n\  - tremolo bar inverted dip
 =   - hold bend; also acts as connecting device for hammers/pulls
 <> - volume swell (louder/softer)
 x   - on rhythm slash represents muted slash
 o   - on rhythm slash represents single note slash

Misc Legend
-----------
 |  - bar
||  - double bar
||o - repeat start
o|| - repeat end
*|  - double bar (ending)
 :  - bar (freetime)
 $  - Segno
 &  - Coda
Tempo markers -  = BPM(8/16=s8/s16), where s8 = swing 8ths, s16 = swing 16ths


** Generated using Power Tab Editor by Brad Larsen: The Official Power Tab Web Site
comments
print report bad tab
9 comments total. Showing first comments.
0 reply
metalheadrenzo wrote on July 4 2008, 10:20 pm

I was suppose to tab this song. Anyways great tab

0 reply
atreyunderworld wrote on October 1 2008, 06:43 pm

here's what i think the intro should sound like, note i do not have the song on hand to listen to im just going from what i remember, see what you think..

C|----------------------------------|
G|-----7--8------10-8-7-------------|
C|-0-0--0---0-8~--------5-3-2-0~~---|
. . . .

the next part that you have tabbed is right i do believe.
this is just the very first line.
by the way.. siick siick tabb 5stars

kthnx, bye.

0 reply
atreyunderworld wrote on October 1 2008, 06:53 pm

also... after the first chorus, right before the second verse..

+E E E E Q. E +H +Q +E E
|------------------------|-------------------||
|------------------------|-------------------||
|------------------------|-------------------||
|------------------------|-----------------0-||
|-------7---8----[8]b10==|=(8)----(8)r=(8)-0-||
|-(0)-0---0--------------|-----------------0-||

this 8 right-----^^^ there
is a pinch harmonic, not just a bend
kbye.

I want to post or [tab]
guest
You may want to rate the tab now too:
select rating
Please do not post tabs as comments. Select "correction" instead!