Oops, an error
Loading. Please wait.

Another Song About The Weekend Acoustic Tab

ver1
ver1

Whole song

Interactive

More versions @911Tabs.com
58,952 views 151 this week
3 commentsread comments
1 2 3 4 5
accurate
x 9
Autoscroll
+/-
esc
set tempo
stop
Contributor
Difficulty
novice
Hey! There's an official Ultimate Guitar app which is ideal
for learning songs when you're away from computer. Get the app
WARNING: You are trying to view
                                    content from Ultimate-Guitar.com
                                    in an unauthorized application,
                                    which is prohibited.

                                    Please use an official Ultimate
                                    Guitar Tabs application for iPhone,
                                    iPad or Android to access legitimate
                                    chords, guitar, bass, and drum tabs
                                    from Ultimate-Guitar.com database.

                                    Type "ultimate guitar tabs" in Apple
                                    App Store's or Android Market's
                                    search to find the application.
                        Another Song About the Weekend (Acoustic)                          

Tuning: Drop-C                                                 Tempo:155 bpm
                                                               A Day to Remember
Guitar 1



     E  S S S S Q    Q    E     E  S S S S Q    Q    E   
D||--------------------------|--------------------------|
A||--------------------------|--------------------------|
F||--7--7-7-7-7-7----7----7--|--7--7-7-7-7-7----7----7--|
C||--------------------------|--------------------------|
G||--5--5-5-5-5-5----5----5--|--5--5-5-5-5-5----5----5--|
C||--------------------------|--------------------------|


  E  S S S S Q    Q    E     E  S S S S Q    Q    E   
--------------------------|--------------------------|
--------------------------|--------------------------|
--7--7-7-7-7-7----7----7--|--7--7-7-7-7-7----7----7--|
--------------------------|--------------------------|
--5--5-5-5-5-5----5----5--|--5--5-5-5-5-5----5----5--|
--------------------------|--------------------------|


                                                     PM PM PM PM PM PM PM PM  
  E  S S S S Q    Q    E     E.  E.  E  E  Q.        E  E  E  E  E  E  E  E   
--------------------------|-----------------------|--------------------------|
--------------------------|-----------------------|--------7--------7-----7--|
--7--7-7-7-7-7----7----7--|--9---7---6--4---------|--7--9-----7--9-----7-----|
--------------------------|--7---5---4--2---------|--------------------------|
--5--5-5-5-5-5----5----5--|-----------------------|--------------------------|
--------------------------|-----------------------|--------------------------|


  PM PM PM PM PM PM PM PM    PM PM PM PM PM PM PM PM  
  E  E  E  E  E  E  E  E     E  E  E  E  E  E  E  E   
--------------------------|--------------------------|
--------7--------7-----7--|--------7--------7-----7--|
--7--9-----7--9-----7-----|--7--9-----7--9-----7-----|
--------------------------|--------------------------|
--------------------------|--------------------------|
--------------------------|--------------------------|


  PM PM PM PM PM PM PM PM    PM PM PM PM PM PM PM PM  
  E  E  E  E  E  E  E  E     E  E  E  E  E  E  E  E   
--------------------------|--------------------------|
--------7--------7-----7--|--------7--------7-----7--|
--7--9-----7--9-----7-----|--7--9-----7--9-----7-----|
--------------------------|--------------------------|
--------------------------|--------------------------|
--------------------------|--------------------------|


  PM PM PM PM PM PM PM PM    PM PM PM PM PM PM PM PM  
  E  E  E  E  E  E  E  E     E  E  E  E  E  E  E  E   
--------------------------|--------------------------|
--------7--------7-----7--|--------5--------5-----5--|
--7--9-----7--9-----7-----|--6--7-----6--7-----6-----|
--------------------------|--------------------------|
--------------------------|--------------------------|
--------------------------|--------------------------|


  PM PM PM PM PM PM PM PM                             
  E  E  E  E  E  E  E  E     E  E  E  E  E  E  E  E   
--------------------------|--------------------------|
--------5--------5-----5--|--------------------------|
--6--7-----6--7-----6-----|--7--7--7--7--7--7--7--7--|
--------------------------|--------------------------|
--------------------------|--5--5--5--5--5--5--5--5--|
--------------------------|--------------------------|


  E  E  E  E  E  E  E  E      E   E   E   E   E   E   E   E   
--------------------------|----------------------------------|
--------------------------|----------------------------------|
--7--7--7--7--7--7--7--7--|--12--12--12--12--12--12--12--12--|
--------------------------|----------------------------------|
--5--5--5--5--5--5--5--5--|--10--10--10--10--10--10--10--10--|
--------------------------|----------------------------------|


   E   E   E   E   E   E   E   E     E  E  E  E  E  E  E  E   
----------------------------------|--------------------------|
----------------------------------|--------------------------|
--12--12--12--12--12--14--14--14--|--7--7--7--7--7--7--7--7--|
----------------------------------|--------------------------|
--10--10--10--10--10--12--12--12--|--5--5--5--5--5--5--5--5--|
----------------------------------|--------------------------|


  E  E  E  E  E   E   E  E     E  E  E  E  E  E  E  E   
----------------------------|--------------------------|
----------------------------|--------------------------|
--7--7--7--7--7--12--12--9--|--9--9--9--9--9--9--9--9--|
----------------------------|--------------------------|
--5--5--5--5--5--10--10--7--|--7--7--7--7--7--7--7--7--|
----------------------------|--------------------------|


  E  E  E  E  E  E  E  E     E  Q    E  E  Q    E     E  Q    E   E   Q     E   
--------------------------|------------------------|---------------------------|
--------------------------|------------------------|---------------------------|
--9--9--9--9--7--7--7--7--|--7--7----7--7--7----7--|--7--7----7--14--14----14--|
--------------------------|------------------------|---------------------------|
--7--7--7--7--5--5--5--5--|--5--5----5--5--5----5--|--5--5----5--12--12----12--|
--------------------------|------------------------|---------------------------|


  E  Q    E  E  Q    E     E  Q    E   E   Q     E     W                 
------------------------|---------------------------|-------------------|
------------------------|---------------------------|-------------------|
--7--7----7--7--7----7--|--7--7----7--14--14----14--|--7----------------|
------------------------|---------------------------|-------------------|
--5--5----5--5--5----5--|--5--5----5--12--12----12--|--5----------------|
------------------------|---------------------------|-------------------|


  W                   W                    E   E   E   E   E   E   E  E   
-------------------|-------------------|---------------------------------|
-------------------|-------------------|---------------------------------|
--7----------------|--7----------------|--14--14--14--14--14--14--14--7--|
-------------------|-------------------|---------------------------------|
--5----------------|--5----------------|--12--12--12--12--12--12--12--5--|
-------------------|-------------------|---------------------------------|


  E  E  E  E  E  E  E  E     E  E  E  E   E   E   E   E   
--------------------------|------------------------------|
--------------------------|------------------------------|
--7--7--7--7--7--7--7--7--|--9--9--9--9--11--11--11--11--|
--------------------------|------------------------------|
--5--5--5--5--5--5--5--5--|--7--7--7--7---9---9---9---9--|
--------------------------|------------------------------|


  E  E  E  E  E  E  E  E     E  E  E  E   E   E   E   E   
--------------------------|------------------------------|
--------------------------|------------------------------|
--7--7--7--7--7--7--7--7--|--9--9--9--9--11--11--11--11--|
--------------------------|------------------------------|
--5--5--5--5--5--5--5--5--|--7--7--7--7---9---9---9---9--|
--------------------------|------------------------------|


   E   E   E   E   E   E   E   E      E   E   E   E   E   E   E   E   
----------------------------------|----------------------------------|
----------------------------------|----------------------------------|
--14--14--14--14--14--14--14--14--|--12--12--12--12--11--11--11--11--|
----------------------------------|----------------------------------|
--12--12--12--12--12--12--12--12--|--10--10--10--10---9---9---9---9--|
----------------------------------|----------------------------------|


   E   E   E   E   E   E   E   E      E   E   E   E  E   E  Q     
----------------------------------|------------------------------|
----------------------------------|------------------------------|
--12--12--12--12--12--12--12--12--|--12--12--12--12--9--11--9----|
----------------------------------|------------------------------|
--10--10--10--10--10--10--10--10--|--10--10--10--10--7---9--7----|
----------------------------------|------------------------------|


  E  E  E  E  E  E  E  E     E  E  E  E   E   E   E   E   
--------------------------|------------------------------|
--------------------------|------------------------------|
--7--7--7--7--7--7--7--7--|--9--9--9--9--11--11--11--11--|
--------------------------|------------------------------|
--5--5--5--5--5--5--5--5--|--7--7--7--7---9---9---9---9--|
--------------------------|------------------------------|


  E  E  E  E  E  E  E  E     E  E  E  E   E   E   E   E   
--------------------------|------------------------------|
--------------------------|------------------------------|
--7--7--7--7--7--7--7--7--|--9--9--9--9--11--11--11--11--|
--------------------------|------------------------------|
--5--5--5--5--5--5--5--5--|--7--7--7--7---9---9---9---9--|
--------------------------|------------------------------|


   E   E   E   E   E   E   E   E      E   E   E   E   E   E   E   E   
----------------------------------|----------------------------------|
----------------------------------|----------------------------------|
--14--14--14--14--14--14--14--14--|--12--12--12--12--11--11--11--11--|
----------------------------------|----------------------------------|
--12--12--12--12--12--12--12--12--|--10--10--10--10---9---9---9---9--|
----------------------------------|----------------------------------|


   E   E   E   E   E   E   E   E      E   E   E   E  E   E  Q     
----------------------------------|------------------------------|
----------------------------------|------------------------------|
--12--12--12--12--12--12--12--12--|--12--12--12--12--9--11--9----|
----------------------------------|------------------------------|
--10--10--10--10--10--10--10--10--|--10--10--10--10--7---9--7----|
----------------------------------|------------------------------|


  E  S S S S Q    Q    E     E.  E.  E  E  Q.        E  E  E  E  E  E  E  E   
--------------------------|-----------------------|--------------------------|
--------------------------|-----------------------|--------------------------|
--7--7-7-7-7-7----7----7--|--9---7---6--4---------|--7--7-----7--7--7-----7--|
--------------------------|--7---5---4--2---------|--------------------------|
--5--5-5-5-5-5----5----5--|-----------------------|--------------------------|
--------------------------|-----------------------|--------------------------|


  E  E  E  E  E  E  E  E     E  E  E  E  E  E  E  E   
--------------------------|--------------------------|
--------------------------|--8--8-----8--8--8-----8--|
--7--7-----7--7--7-----7--|--------------------------|
--------------------------|--------------------------|
--------------------------|--------------------------|
--------------------------|--------------------------|


  E  E  E  E  E  E  E  E     E  E  E  E  E  E  E  E   
--------------------------|--------------------------|
--8--8-----8--8--8-----8--|--------------------------|
--------------------------|--7--7-----7--7--7-----7--|
--------------------------|--------------------------|
--------------------------|--------------------------|
--------------------------|--------------------------|


  E  E  E  E  E  E  E  E     E  E  E  E  E  E  E  E   
--------------------------|--------------------------|
--------------8--8-----8--|--5--5-----5--5--5-----5--|
--7--7-----7--------------|--------------------------|
--------------------------|--------------------------|
--------------------------|--------------------------|
--------------------------|--------------------------|


  E  E  E  E  E  E  E  E     E  Q    E  E  Q    E     E  Q    E   E   Q     E   
--------------------------|------------------------|---------------------------|
--5--5--5--5--------------|------------------------|---------------------------|
--------------7--7--7--7--|--7--7----7--7--7----7--|--7--7----7--14--14----14--|
--------------------------|------------------------|---------------------------|
--------------------------|--5--5----5--5--5----5--|--5--5----5--12--12----12--|
--------------------------|------------------------|---------------------------|


  E  Q    E  E  Q    E     E  Q    E   E   Q     E     Q    Q    E  E  E  E   
------------------------|---------------------------|------------------------|
------------------------|---------------------------|------------------------|
--7--7----7--7--7----7--|--7--7----7--14--14----14--|--7----7----7--7--7--7--|
------------------------|---------------------------|------------------------|
--5--5----5--5--5----5--|--5--5----5--12--12----12--|--5----5----5--5--5--5--|
------------------------|---------------------------|------------------------|


  Q    Q    E  E  E  E     Q    Q    E  E  E  E   
------------------------|------------------------|
------------------------|------------------------|
--L----7----7--7--7--7--|--7----7----7--7--7--7--|
------------------------|------------------------|
--L----5----5--5--5--5--|--5----5----5--5--5--5--|
------------------------|------------------------|


   E   E   E   E   E   E   E   E     E  Q    E  E  Q    E   
----------------------------------|------------------------|
----------------------------------|------------------------|
--14--14--14--14--15--15--15--15--|--7--7----7--7--7----7--|
----------------------------------|------------------------|
--12--12--12--12--13--13--13--13--|--5--5----5--5--5----5--|
----------------------------------|------------------------|


  E  Q    E   E   Q     E     E  Q    E  E  Q    E   
---------------------------|------------------------|
---------------------------|------------------------|
--7--7----7--14--14----14--|--7--7----7--7--7----7--|
---------------------------|------------------------|
--5--5----5--12--12----12--|--5--5----5--5--5----5--|
---------------------------|------------------------|


  E  Q    E   E   Q     E     W                   W                 
---------------------------|-------------------|-------------------|
---------------------------|-------------------|-------------------|
--7--7----7--14--14----14--|--7----------------|--7----------------|
---------------------------|-------------------|-------------------|
--5--5----5--12--12----12--|--5----------------|--5----------------|
---------------------------|-------------------|-------------------|


  W                    E   E   E   E   E   E   E  E   
-------------------|---------------------------------|
-------------------|---------------------------------|
--7----------------|--14--14--14--14--14--14--14--7--|
-------------------|---------------------------------|
--5----------------|--12--12--12--12--12--12--12--5--|
-------------------|---------------------------------|


  E  E  E  E  E  E  E  E     E  E  E  E   E   E   E   E   
--------------------------|------------------------------|
--------------------------|------------------------------|
--7--7--7--7--7--7--7--7--|--9--9--9--9--11--11--11--11--|
--------------------------|------------------------------|
--5--5--5--5--5--5--5--5--|--7--7--7--7---9---9---9---9--|
--------------------------|------------------------------|


  E  E  E  E  E  E  E  E     E  E  E  E   E   E   E   E   
--------------------------|------------------------------|
--------------------------|------------------------------|
--7--7--7--7--7--7--7--7--|--9--9--9--9--11--11--11--11--|
--------------------------|------------------------------|
--5--5--5--5--5--5--5--5--|--7--7--7--7---9---9---9---9--|
--------------------------|------------------------------|


   E   E   E   E   E   E   E   E      E   E   E   E   E   E   E   E   
----------------------------------|----------------------------------|
----------------------------------|----------------------------------|
--14--14--14--14--14--14--14--14--|--12--12--12--12--11--11--11--11--|
----------------------------------|----------------------------------|
--12--12--12--12--12--12--12--12--|--10--10--10--10---9---9---9---9--|
----------------------------------|----------------------------------|


   E   E   E   E   E   E   E   E      E   E   E   E  E   E  Q     
----------------------------------|------------------------------|
----------------------------------|------------------------------|
--12--12--12--12--12--12--12--12--|--12--12--12--12--9--11--9----|
----------------------------------|------------------------------|
--10--10--10--10--10--10--10--10--|--10--10--10--10--7---9--7----|
----------------------------------|------------------------------|


  E  E  E  E  E  E  E  E     E  E  E  E   E   E   E   E   
--------------------------|------------------------------|
--------------------------|------------------------------|
--7--7--7--7--7--7--7--7--|--9--9--9--9--11--11--11--11--|
--------------------------|------------------------------|
--5--5--5--5--5--5--5--5--|--7--7--7--7---9---9---9---9--|
--------------------------|------------------------------|


  E  E  E  E  E  E  E  E     E  E  E  E   E   E   E   E   
--------------------------|------------------------------|
--------------------------|------------------------------|
--7--7--7--7--7--7--7--7--|--9--9--9--9--11--11--11--11--|
--------------------------|------------------------------|
--5--5--5--5--5--5--5--5--|--7--7--7--7---9---9---9---9--|
--------------------------|------------------------------|


   E   E   E   E   E   E   E   E      E   E   E   E   E   E   E   E   
----------------------------------|----------------------------------|
----------------------------------|----------------------------------|
--14--14--14--14--14--14--14--14--|--12--12--12--12--11--11--11--11--|
----------------------------------|----------------------------------|
--12--12--12--12--12--12--12--12--|--10--10--10--10---9---9---9---9--|
----------------------------------|----------------------------------|


   E   E   E   E   E   E   E   E      E   E   E   E  E   E  Q     
----------------------------------|------------------------------|
----------------------------------|------------------------------|
--12--12--12--12--12--12--12--12--|--12--12--12--12--9--11--9----|
----------------------------------|------------------------------|
--10--10--10--10--10--10--10--10--|--10--10--10--10--7---9--7----|
----------------------------------|------------------------------|


  W                   H        E   E  E  E     E  S S E  E  Q    E  E   
-------------------|------------------------|--------------------------|
-------------------|------------------------|--------------------------|
--7----------------|--L--------9--11--9--7--|--L--x-x-x--x--7----7--7--|
-------------------|------------------------|-----x-x-x--x-------------|
--5----------------|--L--------7---9--7--5--|--L--x-x-x--x--5----5--5--|
-------------------|------------------------|--------------------------|


  Q    E  E  E  E  E  E     E  S S E  E  Q    E  E     Q    E  E  E  E  E   E   
-------------------------|--------------------------|--------------------------|
-------------------------|--------------------------|--------------------------|
--7----7--7--7--7--7--7--|--L--x-x-x--x--7----7--7--|--7----7--7--7--7--7--12--|
-------------------------|-----x-x-x--x-------------|--------------------------|
--5----5--5--5--5--5--5--|--L--x-x-x--x--5----5--5--|--5----5--5--5--5--5--10--|
-------------------------|--------------------------|--------------------------|


  E  S S E  E   Q     E   E      Q     E   E   E   E   E   E   
-----------------------------|--------------------------------|
-----------------------------|--------------------------------|
--L--x-x-x--x--12----12--12--|--12----12--12--12--12--12--12--|
-----x-x-x--x----------------|--------------------------------|
--L--x-x-x--x--10----10--10--|--10----10--10--10--10--10--10--|
-----------------------------|--------------------------------|


  E  S S E  E   Q     E   E      Q     E   E   E   E   E   E   
-----------------------------|--------------------------------|
-----------------------------|--------------------------------|
--L--x-x-x--x--12----12--12--|--12----12--12--12--12--12--12--|
-----x-x-x--x----------------|--------------------------------|
--L--x-x-x--x--10----10--10--|--10----10--10--10--10--10--10--|
-----------------------------|--------------------------------|


  E  E  E  E  E  E  E  E     E  E  E  E  E  E  E  E   
--------------------------|--------------------------|
--7-----7-----7-----7-----|--5-----5-----5-----5-----|
-----7-----7-----7-----7--|-----7-----7-----7-----7--|
--------------------------|--------------------------|
--------------------------|--------------------------|
--------------------------|--------------------------|


  E  E  E  E  E  E  E  E     E  E  E  E  E  E  E  E   
--------------------------|--------------------------|
--7-----7-----7-----7-----|--5-----5-----5-----5-----|
-----7-----7-----7-----7--|-----7-----7-----7-----7--|
--------------------------|--------------------------|
--------------------------|--------------------------|
--------------------------|--------------------------|


  E  E  E  E  E  E  E  E     E  E  E  E  E  E  E  E   
--------------------------|--------------------------|
--7-----7-----7-----7-----|--5-----5-----5-----5-----|
-----7-----7-----7-----7--|-----7-----7-----7-----7--|
--------------------------|--------------------------|
--------------------------|--------------------------|
--------------------------|--------------------------|


  E  E  E  E  E  E  E  E     E  E  E  E  E  E  E  E     W                 
--------------------------|--------------------------|-------------------|
--7-----7-----7-----7-----|--5-----5-----5-----5-----|-------------------|
-----7-----7-----7-----7--|-----7-----7-----7-----7--|--7----------------|
--------------------------|--------------------------|-------------------|
--------------------------|--------------------------|--5----------------|
--------------------------|--------------------------|-------------------|


  W                    W                   W                 
-------------------|--------------------|-------------------|
-------------------|--------------------|-------------------|
--L----------------|--12----------------|--L----------------|
-------------------|--------------------|-------------------|
--L----------------|--10----------------|--L----------------|
-------------------|--------------------|-------------------|


   W                    W                    E   E   E   E   E   E   E   E   
--------------------|--------------------|----------------------------------|
--------------------|--------------------|----------------------------------|
--16----------------|--14----------------|--12--12--12--12--12--12--12--12--|
--------------------|--------------------|----------------------------------|
--14----------------|--12----------------|--10--10--10--10--10--10--10--10--|
--------------------|--------------------|----------------------------------|


   E   E   E   E   E  Q.        E  E  E  E  E  E  E  E   
-----------------------------|--------------------------|
-----------------------------|--------------------------|
--12--12--12--12--12---------|--7--7--7--7--7--7--7--7--|
-----------------------------|--------------------------|
--10--10--10--10--10---------|--5--5--5--5--5--5--5--5--|
-----------------------------|--------------------------|


  E  E  E  E   E   E   E   E     E  E  E  E  E  E  E  E   
------------------------------|--------------------------|
------------------------------|--------------------------|
--9--9--9--9--11--11--11--11--|--7--7--7--7--7--7--7--7--|
------------------------------|--------------------------|
--7--7--7--7---9---9---9---9--|--5--5--5--5--5--5--5--5--|
------------------------------|--------------------------|


  E  E  E  E   E   E   E   E      E   E   E   E   E   E   E   E   
------------------------------|----------------------------------|
------------------------------|----------------------------------|
--9--9--9--9--11--11--11--11--|--14--14--14--14--14--14--14--14--|
------------------------------|----------------------------------|
--7--7--7--7---9---9---9---9--|--12--12--12--12--12--12--12--12--|
------------------------------|----------------------------------|


   E   E   E   E   E   E   E   E      E   E   E   E   E   E   E   E   
----------------------------------|----------------------------------|
----------------------------------|----------------------------------|
--12--12--12--12--11--11--11--11--|--12--12--12--12--12--12--12--12--|
----------------------------------|----------------------------------|
--10--10--10--10---9---9---9---9--|--10--10--10--10--10--10--10--10--|
----------------------------------|----------------------------------|


   E   E   E   E  E   E  Q       E  E  E  E  E  E  E  E   
------------------------------|--------------------------|
------------------------------|--------------------------|
--12--12--12--12--9--11--9----|--7--7--7--7--7--7--7--7--|
------------------------------|--------------------------|
--10--10--10--10--7---9--7----|--5--5--5--5--5--5--5--5--|
------------------------------|--------------------------|


  E  E  E  E   E   E   E   E     E  E  E  E  E  E  E  E   
------------------------------|--------------------------|
------------------------------|--------------------------|
--9--9--9--9--11--11--11--11--|--7--7--7--7--7--7--7--7--|
------------------------------|--------------------------|
--7--7--7--7---9---9---9---9--|--5--5--5--5--5--5--5--5--|
------------------------------|--------------------------|


  E  E  E  E   E   E   E   E      E   E   E   E   E   E   E   E   
------------------------------|----------------------------------|
------------------------------|----------------------------------|
--9--9--9--9--11--11--11--11--|--14--14--14--14--14--14--14--14--|
------------------------------|----------------------------------|
--7--7--7--7---9---9---9---9--|--12--12--12--12--12--12--12--12--|
------------------------------|----------------------------------|


   E   E   E   E   E   E   E   E      E   E   E   E   E   E   E   E   
----------------------------------|----------------------------------|
----------------------------------|----------------------------------|
--12--12--12--12--11--11--11--11--|--12--12--12--12--12--12--12--12--|
----------------------------------|----------------------------------|
--10--10--10--10---9---9---9---9--|--10--10--10--10--10--10--10--10--|
----------------------------------|----------------------------------|


   E   E   E   E  E   E  Q       E  E  E  E  E  E  E  E   
------------------------------|--------------------------|
------------------------------|--------------------------|
--12--12--12--12--9--11--9----|--7--7--7--7--7--7--7--7--|
------------------------------|--------------------------|
--10--10--10--10--7---9--7----|--5--5--5--5--5--5--5--5--|
------------------------------|--------------------------|


  E  E  E  E   E   E   E   E     E  E  E  E  E  E  E  E   
------------------------------|--------------------------|
------------------------------|--------------------------|
--9--9--9--9--11--11--11--11--|--7--7--7--7--7--7--7--7--|
------------------------------|--------------------------|
--7--7--7--7---9---9---9---9--|--5--5--5--5--5--5--5--5--|
------------------------------|--------------------------|


  E  E  E  E   E   E   E   E      E   E   E   E   E   E   E   E   
------------------------------|----------------------------------|
------------------------------|----------------------------------|
--9--9--9--9--11--11--11--11--|--14--14--14--14--14--14--14--14--|
------------------------------|----------------------------------|
--7--7--7--7---9---9---9---9--|--12--12--12--12--12--12--12--12--|
------------------------------|----------------------------------|


   E   E   E   E   E   E   E   E      E   E   E   E   E   E   E   E   
----------------------------------|----------------------------------|
----------------------------------|----------------------------------|
--12--12--12--12--11--11--11--11--|--12--12--12--12--12--12--12--12--|
----------------------------------|----------------------------------|
--10--10--10--10---9---9---9---9--|--10--10--10--10--10--10--10--10--|
----------------------------------|----------------------------------|


   E   E   E   E  E   E  Q       E  S S S S Q    Q    E   
------------------------------|--------------------------|
------------------------------|--------------------------|
--12--12--12--12--9--11--9----|--7--7-7-7-7-7----7----7--|
------------------------------|--------------------------|
--10--10--10--10--7---9--7----|--5--5-5-5-5-5----5----5--|
------------------------------|--------------------------|


  E  S S S S Q    Q    E     E  S S S S Q    Q    E     E.  E.  E  E  Q.      
--------------------------|--------------------------|-----------------------|
--------------------------|--------------------------|-----------------------|
--7--7-7-7-7-7----7----7--|--7--7-7-7-7-7----7----7--|--9---7---6--4---------|
--------------------------|--------------------------|--7---5---4--2---------|
--5--5-5-5-5-5----5----5--|--5--5-5-5-5-5----5----5--|-----------------------|
--------------------------|--------------------------|-----------------------|


  W                  
-------------------||
-------------------||
--7----------------||
-------------------||
--5----------------||
-------------------||                       




Guitar 2



                     E  S S S S Q    Q    E     E  S S S S Q    Q    E   
D||-------|-------|--------------------------|--------------------------|
A||-------|-------|--------------------------|--------------------------|
F||-------|-------|--------------------------|--------------------------|
C||-------|-------|--0--0-0-0-0-0----0----0--|--0--0-0-0-0-0----0----0--|
G||-------|-------|--0--0-0-0-0-0----0----0--|--0--0-0-0-0-0----0----0--|
C||-------|-------|--0--0-0-0-0-0----0----0--|--0--0-0-0-0-0----0----0--|


  E  S S S S Q    Q    E     E.  E.  E  E  Q.        W                 
--------------------------|-----------------------|-------------------|
--------------------------|-----------------------|-------------------|
--------------------------|-----------------------|-------------------|
--0--0-0-0-0-0----0----0--|--7---5---4--2---------|--0----------------|
--0--0-0-0-0-0----0----0--|--7---5---4--2---------|--0----------------|
--0--0-0-0-0-0----0----0--|--7---5---4--2---------|--0----------------|


  W                   W                   W                   W                 
-------------------|-------------------|-------------------|-------------------|
-------------------|-------------------|-------------------|-------------------|
-------------------|-------------------|-------------------|-------------------|
--L----------------|--5----------------|--L----------------|--0----------------|
--L----------------|--5----------------|--L----------------|--0----------------|
--L----------------|--5----------------|--L----------------|--0----------------|


                                             PM PM    PM           
  W                   W                   E  E  E  E  E  E  E  E   
-------------------|-------------------|--------------------------|
-------------------|-------------------|--------------------------|
-------------------|-------------------|--------------------------|
--L----------------|--7----------------|--7--7--7--7--7--7--7--7--|
--L----------------|--7----------------|--7--7--7--7--7--7--7--7--|
--L----------------|--7----------------|--7--7--7--7--7--7--7--7--|


        >  >        >  >           >  >        >  >   
  E  E  E  E  E  E  E  E     E  E  E  E  E  E  E  E   
--------------------------|--------------------------|
--------------------------|--------------------------|
--------------------------|--------------------------|
--0--0--0--0--0--0--0--0--|--0--0--0--0--0--0--0--0--|
--0--0--0--0--0--0--0--0--|--0--0--0--0--0--0--0--0--|
--0--0--0--0--0--0--0--0--|--0--0--0--0--0--0--0--0--|


        >  >        >  >           >  >        >  >   
  E  E  E  E  E  E  E  E     E  E  E  E  E  E  E  E   
--------------------------|--------------------------|
--------------------------|--------------------------|
--------------------------|--------------------------|
--5--5--5--5--5--5--5--5--|--5--5--5--5--5--5--5--5--|
--5--5--5--5--5--5--5--5--|--5--5--5--5--5--5--5--5--|
--5--5--5--5--5--5--5--5--|--5--5--5--5--5--5--5--5--|


        >  >        >  >           >  >        >  >   
  E  E  E  E  E  E  E  E     E  E  E  E  E  E  E  E   
--------------------------|--------------------------|
--------------------------|--------------------------|
--------------------------|--------------------------|
--0--0--0--0--0--0--0--0--|--0--0--0--0--0--0--0--0--|
--0--0--0--0--0--0--0--0--|--0--0--0--0--0--0--0--0--|
--0--0--0--0--0--0--0--0--|--0--0--0--0--0--0--0--0--|


        >  >        >  >           >  >        >  >                            
  E  E  E  E  E  E  E  E     E  E  E  E  E  E  E  E     E  Q    E  E  Q    E   
--------------------------|--------------------------|------------------------|
--------------------------|--------------------------|------------------------|
--------------------------|--------------------------|------------------------|
--7--7--7--7--7--7--7--7--|--7--7--7--7--8--8--8--8--|--9--9----9--9--9----9--|
--7--7--7--7--7--7--7--7--|--7--7--7--7--8--8--8--8--|--9--9----9--9--9----9--|
--7--7--7--7--7--7--7--7--|--7--7--7--7--8--8--8--8--|--9--9----9--9--9----9--|


  E  Q    E  E  Q    E     E  Q    E  E  Q    E     E  Q    E  E  Q    E   
------------------------|------------------------|------------------------|
------------------------|------------------------|------------------------|
------------------------|------------------------|------------------------|
--9--9----9--9--9----9--|--8--8----8--8--8----8--|--8--8----8--8--8----8--|
--9--9----9--9--9----9--|--8--8----8--8--8----8--|--8--8----8--8--8----8--|
--9--9----9--9--9----9--|--8--8----8--8--8----8--|--8--8----8--8--8----8--|


  W                   W                   W                 
-------------------|-------------------|-------------------|
-------------------|-------------------|-------------------|
-------------------|-------------------|-------------------|
--5----------------|--4----------------|--5----------------|
--5----------------|--4----------------|--5----------------|
--5----------------|--4----------------|--5----------------|


  E  E  E  E  E  E  E  E     E  E  E  E  E  E  E  E   
--------------------------|--------------------------|
--------------------------|--------------------------|
--------------------------|--------------------------|
--7--7--7--7--7--7--7--0--|--0--0--0--0--0--0--0--0--|
--7--7--7--7--7--7--7--0--|--0--0--0--0--0--0--0--0--|
--7--7--7--7--7--7--7--0--|--0--0--0--0--0--0--0--0--|


  E  E  E  E  E  E  E  E     E  E  E  E  E  E  E  E   
--------------------------|--------------------------|
--------------------------|--------------------------|
--------------------------|--------------------------|
--0--0--0--0--0--0--0--0--|--5--5--5--5--5--5--5--5--|
--0--0--0--0--0--0--0--0--|--5--5--5--5--5--5--5--5--|
--0--0--0--0--0--0--0--0--|--5--5--5--5--5--5--5--5--|


  E  E  E  E  E  E  E  E     E  E  E  E  E  E  E  E   
--------------------------|--------------------------|
--------------------------|--------------------------|
--------------------------|--------------------------|
--5--5--5--5--5--5--5--5--|--9--9--9--9--9--9--9--9--|
--5--5--5--5--5--5--5--5--|--9--9--9--9--9--9--9--9--|
--5--5--5--5--5--5--5--5--|--9--9--9--9--9--9--9--9--|


  E  E  E  E  E  E  E  E     E  E  E  E  E  E  E  E     E  E  E  E  E  E  Q     
--------------------------|--------------------------|-------------------------|
--------------------------|--------------------------|-------------------------|
--------------------------|--------------------------|-------------------------|
--9--9--9--9--9--9--9--9--|--5--5--5--5--5--5--5--5--|--5--5--5--5--5--5--5----|
--9--9--9--9--9--9--9--9--|--5--5--5--5--5--5--5--5--|--5--5--5--5--5--5--5----|
--9--9--9--9--9--9--9--9--|--5--5--5--5--5--5--5--5--|--5--5--5--5--5--5--5----|


  E  E  E  E  E  E  E  E     E  E  E  E  E  E  E  E   
--------------------------|--------------------------|
--------------------------|--------------------------|
--------------------------|--------------------------|
--0--0--0--0--0--0--0--0--|--0--0--0--0--0--0--0--0--|
--0--0--0--0--0--0--0--0--|--0--0--0--0--0--0--0--0--|
--0--0--0--0--0--0--0--0--|--0--0--0--0--0--0--0--0--|


  E  E  E  E  E  E  E  E     E  E  E  E  E  E  E  E   
--------------------------|--------------------------|
--------------------------|--------------------------|
--------------------------|--------------------------|
--5--5--5--5--5--5--5--5--|--5--5--5--5--5--5--5--5--|
--5--5--5--5--5--5--5--5--|--5--5--5--5--5--5--5--5--|
--5--5--5--5--5--5--5--5--|--5--5--5--5--5--5--5--5--|


  E  E  E  E  E  E  E  E     E  E  E  E  E  E  E  E   
--------------------------|--------------------------|
--------------------------|--------------------------|
--------------------------|--------------------------|
--9--9--9--9--9--9--9--9--|--9--9--9--9--9--9--9--9--|
--9--9--9--9--9--9--9--9--|--9--9--9--9--9--9--9--9--|
--9--9--9--9--9--9--9--9--|--9--9--9--9--9--9--9--9--|


  E  E  E  E  E  E  E  E     E  E  E  E  E  E  Q       E  S S S S Q    Q    E   
--------------------------|-------------------------|--------------------------|
--------------------------|-------------------------|--------------------------|
--------------------------|-------------------------|--------------------------|
--5--5--5--5--5--5--5--5--|--5--5--5--5--5--5--5----|--0--0-0-0-0-0----0----0--|
--5--5--5--5--5--5--5--5--|--5--5--5--5--5--5--5----|--0--0-0-0-0-0----0----0--|
--5--5--5--5--5--5--5--5--|--5--5--5--5--5--5--5----|--0--0-0-0-0-0----0----0--|


  E.  E.  E  E  Q.        E  E  E  E  E  E  E  E     E  E  E  E  E  E  E  E   
-----------------------|--------------------------|--------------------------|
-----------------------|--------------------------|--------------------------|
-----------------------|--------------------------|--------------------------|
--7---5---4--2---------|--0--0-----0--0--0-----0--|--0--0-----0--0--0-----0--|
--7---5---4--2---------|--0--0-----0--0--0-----0--|--0--0-----0--0--0-----0--|
--7---5---4--2---------|--0--0-----0--0--0-----0--|--0--0-----0--0--0-----0--|


  E  E  E  E  E  E  E  E     E  E  E  E  E  E  E  E   
--------------------------|--------------------------|
--------------------------|--------------------------|
--------------------------|--------------------------|
--5--5-----5--5--5-----5--|--5--5-----5--5--5-----5--|
--5--5-----5--5--5-----5--|--5--5-----5--5--5-----5--|
--5--5-----5--5--5-----5--|--5--5-----5--5--5-----5--|


  E  E  E  E  E  E  E  E     E  E  E  E  E  E  E  E   
--------------------------|--------------------------|
--------------------------|--------------------------|
--------------------------|--------------------------|
--0--0-----0--0--0-----0--|--0--0-----0--0--0-----0--|
--0--0-----0--0--0-----0--|--0--0-----0--0--0-----0--|
--0--0-----0--0--0-----0--|--0--0-----0--0--0-----0--|


  E  E  E  E  E  E  E  E     E  E  E  E  E  E  E  E     E  Q    E  E  Q    E   
--------------------------|--------------------------|------------------------|
--------------------------|--------------------------|------------------------|
--------------------------|--------------------------|------------------------|
--7--7-----7--7--7-----7--|--7--7--7--7--8--8--8--8--|--9--9----9--9--9----9--|
--7--7-----7--7--7-----7--|--7--7--7--7--8--8--8--8--|--9--9----9--9--9----9--|
--7--7-----7--7--7-----7--|--7--7--7--7--8--8--8--8--|--9--9----9--9--9----9--|


  E  Q    E  E  Q    E     E  Q    E  E  Q    E     E  Q    E  E  Q    E   
------------------------|------------------------|------------------------|
------------------------|------------------------|------------------------|
------------------------|------------------------|------------------------|
--9--9----9--9--9----9--|--8--8----8--8--8----8--|--8--8----8--8--8----8--|
--9--9----9--9--9----9--|--8--8----8--8--8----8--|--8--8----8--8--8----8--|
--9--9----9--9--9----9--|--8--8----8--8--8----8--|--8--8----8--8--8----8--|


  Q    Q    E  E  E  E     Q    Q    E  E  E  E     Q    Q    E  E  E  E   
------------------------|------------------------|------------------------|
------------------------|------------------------|------------------------|
------------------------|------------------------|------------------------|
--5----5----5--5--5--4--|--L----4----4--4--4--5--|--5----5----5--5--5--7--|
--5----5----5--5--5--4--|--L----4----4--4--4--5--|--5----5----5--5--5--7--|
--5----5----5--5--5--4--|--L----4----4--4--4--5--|--5----5----5--5--5--7--|


  E  E  E  E  E  E  E  E     E  Q    E  E  Q    E     E  Q    E  E  Q    E   
--------------------------|------------------------|------------------------|
--------------------------|------------------------|------------------------|
--------------------------|------------------------|------------------------|
--7--7--7--7--8--8--8--8--|--9--9----9--9--9----9--|--9--9----9--9--9----9--|
--7--7--7--7--8--8--8--8--|--9--9----9--9--9----9--|--9--9----9--9--9----9--|
--7--7--7--7--8--8--8--8--|--9--9----9--9--9----9--|--9--9----9--9--9----9--|


  E  Q    E  E  Q    E     E  Q    E  E  Q    E     W                 
------------------------|------------------------|-------------------|
------------------------|------------------------|-------------------|
------------------------|------------------------|-------------------|
--8--8----8--8--8----8--|--8--8----8--8--8----8--|--5----------------|
--8--8----8--8--8----8--|--8--8----8--8--8----8--|--5----------------|
--8--8----8--8--8----8--|--8--8----8--8--8----8--|--5----------------|


  W                   W                   E  E  E  E  E  E  E  E   
-------------------|-------------------|--------------------------|
-------------------|-------------------|--------------------------|
-------------------|-------------------|--------------------------|
--4----------------|--5----------------|--7--7--7--7--7--7--7--0--|
--4----------------|--5----------------|--7--7--7--7--7--7--7--0--|
--4----------------|--5----------------|--7--7--7--7--7--7--7--0--|


  E  E  E  E  E  E  E  E     E  E  E  E  E  E  E  E   
--------------------------|--------------------------|
--------------------------|--------------------------|
--------------------------|--------------------------|
--0--0--0--0--0--0--0--0--|--0--0--0--0--0--0--0--0--|
--0--0--0--0--0--0--0--0--|--0--0--0--0--0--0--0--0--|
--0--0--0--0--0--0--0--0--|--0--0--0--0--0--0--0--0--|


  E  E  E  E  E  E  E  E     E  E  E  E  E  E  E  E   
--------------------------|--------------------------|
--------------------------|--------------------------|
--------------------------|--------------------------|
--5--5--5--5--5--5--5--5--|--5--5--5--5--5--5--5--5--|
--5--5--5--5--5--5--5--5--|--5--5--5--5--5--5--5--5--|
--5--5--5--5--5--5--5--5--|--5--5--5--5--5--5--5--5--|


  E  E  E  E  E  E  E  E     E  E  E  E  E  E  E  E   
--------------------------|--------------------------|
--------------------------|--------------------------|
--------------------------|--------------------------|
--9--9--9--9--9--9--9--9--|--9--9--9--9--9--9--9--9--|
--9--9--9--9--9--9--9--9--|--9--9--9--9--9--9--9--9--|
--9--9--9--9--9--9--9--9--|--9--9--9--9--9--9--9--9--|


  E  E  E  E  E  E  E  E     E  E  E  E  E  E  Q       E  E  E  E  E  E  E  E   
--------------------------|-------------------------|--------------------------|
--------------------------|-------------------------|--------------------------|
--------------------------|-------------------------|--------------------------|
--5--5--5--5--5--5--5--5--|--5--5--5--5--5--5--5----|--0--0--0--0--0--0--0--0--|
--5--5--5--5--5--5--5--5--|--5--5--5--5--5--5--5----|--0--0--0--0--0--0--0--0--|
--5--5--5--5--5--5--5--5--|--5--5--5--5--5--5--5----|--0--0--0--0--0--0--0--0--|


  E  E  E  E  E  E  E  E     E  E  E  E  E  E  E  E   
--------------------------|--------------------------|
--------------------------|--------------------------|
--------------------------|--------------------------|
--0--0--0--0--0--0--0--0--|--5--5--5--5--5--5--5--5--|
--0--0--0--0--0--0--0--0--|--5--5--5--5--5--5--5--5--|
--0--0--0--0--0--0--0--0--|--5--5--5--5--5--5--5--5--|


  E  E  E  E  E  E  E  E     E  E  E  E  E  E  E  E   
--------------------------|--------------------------|
--------------------------|--------------------------|
--------------------------|--------------------------|
--5--5--5--5--5--5--5--5--|--9--9--9--9--9--9--9--9--|
--5--5--5--5--5--5--5--5--|--9--9--9--9--9--9--9--9--|
--5--5--5--5--5--5--5--5--|--9--9--9--9--9--9--9--9--|


  E  E  E  E  E  E  E  E     E  E  E  E  E  E  E  E     E  E  E  E  E  E  Q     
--------------------------|--------------------------|-------------------------|
--------------------------|--------------------------|-------------------------|
--------------------------|--------------------------|-------------------------|
--9--9--9--9--9--9--9--9--|--5--5--5--5--5--5--5--5--|--5--5--5--5--5--5--5----|
--9--9--9--9--9--9--9--9--|--5--5--5--5--5--5--5--5--|--5--5--5--5--5--5--5----|
--9--9--9--9--9--9--9--9--|--5--5--5--5--5--5--5--5--|--5--5--5--5--5--5--5----|


                                                 PM PM PM PM             
  W                   H        E  E  E  E     E  S  S  E  E  Q    E  E   
-------------------|-----------------------|----------------------------|
-------------------|-----------------------|----------------------------|
-------------------|-----------------------|----------------------------|
--0----------------|--L--------5--5--5--0--|--L--0--0--0--0--0----0--0--|
--0----------------|--L--------5--5--5--0--|--L--0--0--0--0--0----0--0--|
--0----------------|--L--------5--5--5--0--|--L--0--0--0--0--0----0--0--|


                               PM PM PM PM             
  Q    E  E  E  E  E  E     E  S  S  E  E  Q    E  E   
-------------------------|----------------------------|
-------------------------|----------------------------|
-------------------------|----------------------------|
--0----0--0--0--0--0--0--|--L--0--0--0--0--0----0--0--|
--0----0--0--0--0--0--0--|--L--0--0--0--0--0----0--0--|
--0----0--0--0--0--0--0--|--L--0--0--0--0--0----0--0--|


                               PM PM PM PM             
  Q    E  E  E  E  E  E     E  S  S  E  E  Q    E  E   
-------------------------|----------------------------|
-------------------------|----------------------------|
-------------------------|----------------------------|
--0----0--0--0--0--0--5--|--L--5--5--5--5--5----5--5--|
--0----0--0--0--0--0--5--|--L--5--5--5--5--5----5--5--|
--0----0--0--0--0--0--5--|--L--5--5--5--5--5----5--5--|


                               PM PM PM PM             
  Q    E  E  E  E  E  E     E  S  S  E  E  Q    E  E   
-------------------------|----------------------------|
-------------------------|----------------------------|
-------------------------|----------------------------|
--5----5--5--5--5--5--5--|--L--5--5--5--5--5----5--5--|
--5----5--5--5--5--5--5--|--L--5--5--5--5--5----5--5--|
--5----5--5--5--5--5--5--|--L--5--5--5--5--5----5--5--|


                               PM PM PM PM             
  Q    E  E  E  E  E  E     E  S  S  E  E  Q    E  E   
-------------------------|----------------------------|
-------------------------|----------------------------|
-------------------------|----------------------------|
--5----5--5--5--5--5--0--|--L--0--0--0--0--0----0--0--|
--5----5--5--5--5--5--0--|--L--0--0--0--0--0----0--0--|
--5----5--5--5--5--5--0--|--L--0--0--0--0--0----0--0--|


                               PM PM PM PM             
  Q    E  E  E  E  E  E     E  S  S  E  E  Q    E  E   
-------------------------|----------------------------|
-------------------------|----------------------------|
-------------------------|----------------------------|
--0----0--0--0--0--0--0--|--L--0--0--0--0--0----0--0--|
--0----0--0--0--0--0--0--|--L--0--0--0--0--0----0--0--|
--0----0--0--0--0--0--0--|--L--0--0--0--0--0----0--0--|


                               PM PM PM PM             
  Q    E  E  E  E  E  E     E  S  S  E  E  Q    E  E   
-------------------------|----------------------------|
-------------------------|----------------------------|
-------------------------|----------------------------|
--0----0--0--0--0--0--5--|--L--5--5--5--5--5----5--5--|
--0----0--0--0--0--0--5--|--L--5--5--5--5--5----5--5--|
--0----0--0--0--0--0--5--|--L--5--5--5--5--5----5--5--|


                               PM PM PM PM             
  Q    E  E  E  E  E  E     E  S  S  E  E  Q    E  E   
-------------------------|----------------------------|
-------------------------|----------------------------|
-------------------------|----------------------------|
--5----5--5--5--5--5--5--|--L--5--5--5--5--5----5--5--|
--5----5--5--5--5--5--5--|--L--5--5--5--5--5----5--5--|
--5----5--5--5--5--5--5--|--L--5--5--5--5--5----5--5--|


  Q    E  E  E  E  E  E     W                   W                 
-------------------------|-------------------|-------------------|
-------------------------|-------------------|-------------------|
-------------------------|-------------------|-------------------|
--5----5--5--5--5--5--0--|--0----------------|--L----------------|
--5----5--5--5--5--5--0--|--0----------------|--L----------------|
--5----5--5--5--5--5--0--|--0----------------|--L----------------|


  W                   W                   W                   W                 
-------------------|-------------------|-------------------|-------------------|
-------------------|-------------------|-------------------|-------------------|
-------------------|-------------------|-------------------|-------------------|
--5----------------|--L----------------|--9----------------|--7----------------|
--5----------------|--L----------------|--9----------------|--7----------------|
--5----------------|--L----------------|--9----------------|--7----------------|


  PM PM PM PM PM PM PM PM                                                      
  E  E  E  E  E  E  E  E     E  E  E  E  E  Q.        E  E  E  E  E  E  E  E   
--------------------------|------------------------|--------------------------|
--------------------------|------------------------|--------------------------|
--------------------------|------------------------|--------------------------|
--5--5--5--5--5--5--5--5--|--5--5--5--5--5---------|--0--0--0--0--0--0--0--0--|
--5--5--5--5--5--5--5--5--|--5--5--5--5--5---------|--0--0--0--0--0--0--0--0--|
--5--5--5--5--5--5--5--5--|--5--5--5--5--5---------|--0--0--0--0--0--0--0--0--|


  E  E  E  E  E  E  E  E     E  E  E  E  E  E  E  E   
--------------------------|--------------------------|
--------------------------|--------------------------|
--------------------------|--------------------------|
--0--0--0--0--0--0--0--0--|--5--5--5--5--5--5--5--5--|
--0--0--0--0--0--0--0--0--|--5--5--5--5--5--5--5--5--|
--0--0--0--0--0--0--0--0--|--5--5--5--5--5--5--5--5--|


  E  E  E  E  E  E  E  E     E  E  E  E  E  E  E  E   
--------------------------|--------------------------|
--------------------------|--------------------------|
--------------------------|--------------------------|
--5--5--5--5--5--5--5--5--|--9--9--9--9--9--9--9--9--|
--5--5--5--5--5--5--5--5--|--9--9--9--9--9--9--9--9--|
--5--5--5--5--5--5--5--5--|--9--9--9--9--9--9--9--9--|


  E  E  E  E  E  E  E  E     E  E  E  E  E  E  E  E     E  E  E  E  E  E  Q     
--------------------------|--------------------------|-------------------------|
--------------------------|--------------------------|-------------------------|
--------------------------|--------------------------|-------------------------|
--9--9--9--9--9--9--9--9--|--5--5--5--5--5--5--5--5--|--5--5--5--5--5--5--5----|
--9--9--9--9--9--9--9--9--|--5--5--5--5--5--5--5--5--|--5--5--5--5--5--5--5----|
--9--9--9--9--9--9--9--9--|--5--5--5--5--5--5--5--5--|--5--5--5--5--5--5--5----|


  E  E  E  E  E  E  E  E     E  E  E  E  E  E  E  E   
--------------------------|--------------------------|
--------------------------|--------------------------|
--------------------------|--------------------------|
--0--0--0--0--0--0--0--0--|--0--0--0--0--0--0--0--0--|
--0--0--0--0--0--0--0--0--|--0--0--0--0--0--0--0--0--|
--0--0--0--0--0--0--0--0--|--0--0--0--0--0--0--0--0--|


  E  E  E  E  E  E  E  E     E  E  E  E  E  E  E  E   
--------------------------|--------------------------|
--------------------------|--------------------------|
--------------------------|--------------------------|
--5--5--5--5--5--5--5--5--|--5--5--5--5--5--5--5--5--|
--5--5--5--5--5--5--5--5--|--5--5--5--5--5--5--5--5--|
--5--5--5--5--5--5--5--5--|--5--5--5--5--5--5--5--5--|


  E  E  E  E  E  E  E  E     E  E  E  E  E  E  E  E   
--------------------------|--------------------------|
--------------------------|--------------------------|
--------------------------|--------------------------|
--9--9--9--9--9--9--9--9--|--9--9--9--9--9--9--9--9--|
--9--9--9--9--9--9--9--9--|--9--9--9--9--9--9--9--9--|
--9--9--9--9--9--9--9--9--|--9--9--9--9--9--9--9--9--|


  E  E  E  E  E  E  E  E     E  E  E  E  E  E  Q       E  E  E  E  E  E  E  E   
--------------------------|-------------------------|--------------------------|
--------------------------|-------------------------|--------------------------|
--------------------------|-------------------------|--------------------------|
--5--5--5--5--5--5--5--5--|--5--5--5--5--5--5--5----|--0--0--0--0--0--0--0--0--|
--5--5--5--5--5--5--5--5--|--5--5--5--5--5--5--5----|--0--0--0--0--0--0--0--0--|
--5--5--5--5--5--5--5--5--|--5--5--5--5--5--5--5----|--0--0--0--0--0--0--0--0--|


  E  E  E  E  E  E  E  E     E  E  E  E  E  E  E  E   
--------------------------|--------------------------|
--------------------------|--------------------------|
--------------------------|--------------------------|
--0--0--0--0--0--0--0--0--|--5--5--5--5--5--5--5--5--|
--0--0--0--0--0--0--0--0--|--5--5--5--5--5--5--5--5--|
--0--0--0--0--0--0--0--0--|--5--5--5--5--5--5--5--5--|


  E  E  E  E  E  E  E  E     E  E  E  E  E  E  E  E   
--------------------------|--------------------------|
--------------------------|--------------------------|
--------------------------|--------------------------|
--5--5--5--5--5--5--5--5--|--9--9--9--9--9--9--9--9--|
--5--5--5--5--5--5--5--5--|--9--9--9--9--9--9--9--9--|
--5--5--5--5--5--5--5--5--|--9--9--9--9--9--9--9--9--|


  E  E  E  E  E  E  E  E     E  E  E  E  E  E  E  E     E  E  E  E  E  E  Q     
--------------------------|--------------------------|-------------------------|
--------------------------|--------------------------|-------------------------|
--------------------------|--------------------------|-------------------------|
--9--9--9--9--9--9--9--9--|--5--5--5--5--5--5--5--5--|--5--5--5--5--5--5--5----|
--9--9--9--9--9--9--9--9--|--5--5--5--5--5--5--5--5--|--5--5--5--5--5--5--5----|
--9--9--9--9--9--9--9--9--|--5--5--5--5--5--5--5--5--|--5--5--5--5--5--5--5----|


  E  S S S S Q    Q    E     E  S S S S Q    Q    E   
--------------------------|--------------------------|
--------------------------|--------------------------|
--------------------------|--------------------------|
--0--0-0-0-0-0----0----0--|--0--0-0-0-0-0----0----0--|
--0--0-0-0-0-0----0----0--|--0--0-0-0-0-0----0----0--|
--0--0-0-0-0-0----0----0--|--0--0-0-0-0-0----0----0--|


  E  S S S S Q    Q    E     E.  E.  E  E  Q.        W                  
--------------------------|-----------------------|-------------------||
--------------------------|-----------------------|-------------------||
--------------------------|-----------------------|-------------------||
--0--0-0-0-0-0----0----0--|--7---5---4--2---------|--0----------------||
--0--0-0-0-0-0----0----0--|--7---5---4--2---------|--0----------------||
--0--0-0-0-0-0----0----0--|--7---5---4--2---------|--0----------------||




Duration Legend
---------------
W - whole
H - half
Q - quarter
E - 8th
S - 16th
T - 32nd
X - 64th
. - note dotted
|-n-|  - n-tuplets


Tablature Legend
----------------
L - tied note
x - dead note
g - grace note
(n) - ghost note
> - accentuded note
NH - natural harmonic
AH - artificial harmonic
TH - tapped harmonic
SH - semi harmonic
PH - pitch harmonic
h - hammer on
p - pull off
b - bend
br - bendRelease
pb - preBend
pbr - preBendRelease
brb - bendReleaseBend
\n/ - tremolo bar dip
\n - tremolo bar dive
-/n - tremolo bar Release up
/n\ - tremolo bar inverted dip
/n - tremolo bar return
-\n - tremolo bar Release down
S - shift slide
s - legato slide
/ -  slide into from below or out of upwards
\ -  slide into from above or out of downwards
~ - vibrato
W - wide vibrato
tr - trill
TP - tremolo picking
T - tapping
S - slap
P - pop
< - fade in
^ - brush up
v - brush down

comments
print report bad tab
3 comments total.
0 reply
maxpowweer wrote on April 30 2013, 12:22 pm

It looks correct, but wow, this is waaay too difficult to follow. Man, break it up with the parts, "chorus", "verse" etc. Also, you don't need to write out each chorus, each verse, just say that we have to play that, since we'll have learnt that bit.

0 reply
Icemanismyname wrote on August 12 2013, 02:51 am

the intro is bogus just after the c intro strum you
D||--------------------------|--------------------------|
A||--------------------------|--------------------------|
F||--7--7-7-7-7-7----7----7--|--7--7-7-7-7-7----7----7--|
C||--------------------------|--------------------------|
G||--5--5-5-5-5-5----5----5--|--5--5-5-5-5-5----5----5--|
C||--------------------------|--------------------------|
triplet up down.....
----------------
----------------
---7---5---3---0
---7---5---3---2
---7---5---3---2
---7---5---3---0 ...
they keep playing sad songs on the radio.

------------------------------------
------------------------------------
------------------------------------
-0-----------------5---------------7
-0-----------------5---------------7
-0-----------------5---------------7

0 reply
Icemanismyname wrote on August 12 2013, 02:53 am

down-triplet up down*

I want to post or [tab]
guest
You may want to rate the tab now too:
select rating
Please do not post tabs as comments. Select "correction" instead!