Oops, an error
Loading. Please wait.

Better Off This Way Bass Tab

ver1
ver1

Whole song

Interactive

More versions @911Tabs.com
1,181 views 18 this week
1 commentread comment
1 2 3 4 5
accurate
x 2
add to favorites launch autoscroll
font size
0
reset
Autoscroll
+/-
esc
set tempo
stop
Contributor
Difficulty
Tuning
novice
B E A D F# B
WARNING: You are trying to view
                                    content from Ultimate-Guitar.com
                                    in an unauthorized application,
                                    which is prohibited.

                                    Please use an official Ultimate
                                    Guitar Tabs application for iPhone,
                                    iPad or Android to access legitimate
                                    chords, guitar, bass, and drum tabs
                                    from Ultimate-Guitar.com database.

                                    Type "ultimate guitar tabs" in Apple
                                    App Store's or Android Market's
                                    search to find the application.
Song - Better Off This Way
Album - What Separates Me From You
Bassist - Josh Woodward
Tuning - Standard 5 String B E A D G

I've never seen Josh use a 5er, so he probably uses
a really heavy gauge string, or even strings it 
with a set for a 5 string, and just disregards
bin the G. 

Intro
G|-----------------------------|
D|-----------------------------|
A|-----------------------------|
E|-----------------5-55----5-55|
B|2-2------2-22----------------|

Verse
G|-------------------------------------------------------|
D|-------------------------------------------------------|
A|-------------------------------------------------------|
E|------------------------555555555----------------------|
B|2222222555555500000(x2)----------555555555000000000(x2)|

Chorus - I have roughly tabbed the rhythm,
but you will have to listen carefully
for yourself to get it properly. 
G|--------------------------------|
D|--------------------------------|
A|--------------------------------|
E|5-55-55-------------------------|
B|--------5-55-55-0-00-00-00-00-00|x4

Post Chorus
G|----------------------|
D|----------------------|
A|----------------------|
E|5-55------------------|
B|------5-55--0-00--0-00|x2

Verse

Pre Chorus
G|------------------------------------------------|
D|------------------------------------------------|
A|------------------------------------------------|
E|--------------------55555--5-55-555-55555555----|
B-2222--2-2222--2-22------------------------555000|

Chorus
Post Chorus

Bridge
G|--------------------------------------------------------------|
D|--------------------------------------------------------------|
A|-------------------------------------------------------7777777|
E|5-5-555--5-55-555------------5-5-555--5-5-555--7777777--------|
B|------------------5555500000----------------------------------|x2

G|----------------------------------|
D|----------------------------------|
A|----7-------------7-77------------|
E|5-----------5-55--------7-77--7-77|
B|--------0-------------------------|

Chorus

Outro
G|-----------------------------------------------------|
D|-----------------------------------------------------|
A|----------------------------------------7------------|
E|5-55-------------------5-55---------------7-5-0[HOLD]|
B|------5-55--0-00-0-00--------5-55-0-00---------------|

Please rate, and let me know of any errors!
comments
We did not receive enough feedback on this tab! Please rate:
print report bad tab
1 2 3 4 5
1 comment total.
0 reply
London Bassist wrote on March 11 2014, 07:22 am

Good tab, 5/5!

I want to post or [tab]
guest
You may want to rate the tab now too:
select rating
Please do not post tabs as comments. Select "correction" instead!